Apache taby ukulele według Shadows

Taby ukulele bez chwytów.

Oceń piosenkę!
WydrukujDodaj tab do śpiewnika

Tablature / Chords (Cały utwór)

Font size: A- A A+

Artysta: 
Rok:  1996
Akord: nieznaneTabulatura (bez chwytów)
---3-5-------3------|---3-5-----3------|------------------|---------------------|
---------------5-3-0|-------------5-3-0|-0---0---0-2-0---0|-0---0---0-2-0---0---|
--------------------|------------------|---------------2--|---------------2-----|
-2---------2--------|-2-------2--------|---2---2----------|---2---2-------------|

-------------------|------------------|-----------------------------00-----|
-5---5---5---5-3--5|-0---0---0-2-0---0|---111---1111-x2111---1111-0--------|
---2---2-----------|---------------2--|-0-----0------0-----0---------------|
-----------4-------|---2---2----------|------------------------------------|
H S S H S S
-----3-2-2-3-5-5-7-7-5-3--|-----3-2-2-3-5---5-7---7-7----------|
-1------------------------|-1-------------------3-----3-6-3-6v|
--------------------------|-----------------------------------|
---2---------------------2|---2-----------0-------------------|
H S S
-----3--2-2-3-5-5-7--7-5-3--|-----------------------------0-0--|
-1--------------------------|---111---1111-x2111---1111-0------|
----------------------------|-0-----0------0-----0-------------|
---2-----------------------2|----------------------------------|

------------------------|----------------------|---------------------|
--0---0---22222---0----0|--0---0---22222-0---0-|-5---5---------5-3--5|
---------------------2--|------------------2---|---2---2-------------|
----2---2---------------|----2---2-------------|---------44444-------|
H S S H
--------------------|-----3-2-2-3-5-5-7-7-5-3--|-----3-2-2-3-5-----------------|
-0---0---22222-0---0|-1------------------------|-1-----------------------------|
-----------------2--|--------------------------|-------------------------------|
---2---2------------|---2----------------------|---2-----------00000-3-2-3-2-0-|
H S S
-----3-2-2-3-5-7-7-5-4|-----------------------------0-0|
-1--------------------|---111---1111---111---1111-0----|
----------------------|-0-----0------0-----0-----------|
---2------------------|--------------------------------|
P
-----------------------|---3-5--|---3--------------------------------------------|
-------55555-----------|--------|-----5-3-0--------------------------------------|
-----5-------------55-4|--------|------------------------------------------------|
-8-8---------55555-----|-2------|-2----------re-eat til fade---------------------|

⇢ Nie podoba Ci się ta tablatura? Wyświetl 1 innych wersji

taby ukulele według , 13 cze 2013

Komentarze do tabów (0)

Nie ma jeszcze żadnych komentarzy :(
Potrzebujesz pomocy, masz wskazówkę którą chcesz się podzielić, czy chcesz po prostu porozmawiać o tej piosence? Rozpocznij dyskusje

Chcesz coś powiedzieć?
Podziel się swoimi wzorami strummingowymi, akordami lub wskazówkami jak grać ten tabulator!

O tej piosence: Apache

Brak informacji o tej piosence.

Wykonałeś cover Apache na swoim ukulele? Podziel się swoją pracą!
Dodaj przeróbkę