Can't Stop taby ukulele według Red Hot Chili Peppers

Taby ukulele bez chwytów.

9.8/10
WydrukujDodaj tab do śpiewnika

Tablature / Chords (Cały utwór)

Font size: A- A A+

Album: 
Rok:  2002
Akord: nieznaneTabulatura (bez chwytów)
# For those who may be interested, I have also created a tab for 
# low-G tuned ukuleles that more closely resembles the song also
# here on Ukulele-Tabs.com.

# Tablature Legend:
# -----------------
# br - bend and release

A||-------------------------------||
E||o-----------------------------o||
C||o--3-5--3-5--3-5--3-5--3-5----o||
G||-------------------------------||


|--------------------------------|
|--------------------------------|
|--3-5--3-5br--3-5--3-0-5-3-5----|
|--------------------------------|

# (3x)
||-------------------------------||
||o-----------------------------o||
||o--3-5--3-5--3-5--3-5--3-5----o||
||-------------------------------||


|------6--8--------6-x-8--------|
|-------------------------------|
|--5-5-------5-5-5--------5-5-5-|
|-------------------------------|


|-----6--8--------6-x-8--8-----|
|------------------------------|
|--3--------3-3-3--------3-3-3-|
|------------------------------|


|-----6--8--------6-x-8--6-----|
|------------------------------|
|--0--0-----0-0-0-0------0-0-0-|
|------------------------------|


|-----6--8--------6-x-8--6-----||
|------------------------------||
|--1--1-----1-1-1-1------1-1-1-||
|------------------------------||

⇢ Nie podoba Ci się ta tablatura? Wyświetl 6 innych wersji

taby ukulele według , 31 sty 2010

Komentarze do tabów (1)

Chcesz coś powiedzieć?
Podziel się swoimi wzorami strummingowymi, akordami lub wskazówkami jak grać ten tabulator!
Filtruj według:
nviagas avatar
Love the song
31 Jan 2010
Komentarz

Top Taby i chwyty Red Hot Chili Peppers, nie przegap tych utworów!

O tej piosence: Can't Stop

Brak informacji o tej piosence.

Wykonałeś cover Can't Stop na swoim ukulele? Podziel się swoją pracą!
Dodaj przeróbkę