No Surprises taby ukulele według Radiohead

7 Chwyty użyte w piosence: G, Bm, C, D, Am6, A, Cm

8.6/10
WydrukujDodaj tab do śpiewnika

Tablature / Chords (Cały utwór)

Font size: A- A A+

Artysta: 
Album: 
Rok:  1997
Trudność: 
3.5
(zaawansowany)
Akord: nieznaneChwyty i tabulatura
# Intro - G G chord position 

A|--2-------------2-----------2--------------------0---|
E|--------3-------------3-----------3-----------3------|
C|-----2------2------2-----2-----2-----2--0--3---------|
G|-----------------------------------------------------|

# Repeat 4x

G G Bm Bm

A A heart that's full up like a landfill

C C

A A job that slowly kills you

D D Am6 Am6 G G

Bruises that don't heal

# Intro Riff 1x

G G

You look so tired, unhappy

Bm Bm

Bring down the government

C C D D Am6 Am6 G G

They don't, they don't speak for us

# Intro Riff 1x

G G

I'll take a quiet life

Bm Bm

A A handshake of carbon monoxide

C C D D Am6 Am6

No Alarms and No Surprises

C C D D Am6 Am6

No Alarms and No Surprises

C C D D Am6 Am6

No Alarms and No Surprises

A|--2-------------2-----------2--------------------0---|
E|--------3-------------3-----------3-----------3------|
C|-----2------2------2-----2-----2-----2--0--3---------|
G|-----------------------------------------------------|

Silence

A|--2-------------2-----------2--------------------0---|
E|--------3-------------3-----------3-----------3------|
C|-----2------2------2-----2-----2-----2--0--3---------|
G|-----------------------------------------------------|

Silence

A|--2-------------2-----------2--------------------0---|
E|--------3-------------3-----------3-----------3------|
C|-----2------2------2-----2-----2-----2--0--3---------|
G|-----------------------------------------------------|

This is my final fit my

A|--2-------------2-----------2--------------------2---|
E|--------2-------------2-----------2-----------2------|
C|-----2------2------2-----2-----2-----2--0--2---------|
G|-----------------------------------------------------|

Final bellyache with

C C D D Am6 Am6

No Alarms and No Surprises

C C D D Am6 Am6

No Alarms and No Surprises

C C D D Am6 Am6

No Alarms and No Surprises

G G

Please

# Bridge

G G

A A Cm Cm

A A Cm Cm

C C Cm Cm



G G Bm Bm

Such a pretty house and such a pretty garden

C C D D Am6 Am6

No Alarms and No Surprises

C C D D Am6 Am6

No Alarms and No Surprises

C C D D Am6 Am6

No Alarms and No Surprises

A|--2-------------2-----------2--------------------0---|
E|--------3-------------3-----------3-----------3------|
C|-----2------2------2-----2-----2-----2--0--3---------|
G|-----------------------------------------------------|

Please

# Repeat outro riff 2x

⇢ Nie podoba Ci się ta tablatura? Wyświetl 9 innych wersji

taby ukulele według , 20 cze 2014

Komentarze do tabów (1)

Chcesz coś powiedzieć?
Podziel się swoimi wzorami strummingowymi, akordami lub wskazówkami jak grać ten tabulator!
Filtruj według:
adams4peace avatar
Am6 chord does not sound right at all.
20 Jun 2014
Korekta

Top Taby i chwyty Radiohead, nie przegap tych utworów!

O tej piosence: No Surprises

Brak informacji o tej piosence.

Wykonałeś cover No Surprises na swoim ukulele? Podziel się swoją pracą!
Dodaj przeróbkę