Wish You Were Here taby ukulele według Pink Floyd

5 Chwyty użyte w piosence: C, D, Am, G, AM

9.8/10
WydrukujDodaj tab do śpiewnika

Tablature / Chords (Piosenka uproszczona)

Font size: A- A A+

Artysta: 
Rok:  1975
Trudność: 
2.7
(poczatkujacy)
Akord: G, EmChwyty i tabulatura
# Wish You Were Here
# Tabs for Ukulele

main riff:
A|----------------------------5---|7-------7------------7---10--7---|
E|--------------------3---5-7-----|X-------7------------7-----------|
C|--------------------------------|X-------7------------7-----------|
G|--------------------------------|X-------9------------9-----------|

A|--------2-------------------5---|7-------7------------7---10--7---|
E|10------3-----------3---5-7-----|X-------7------------7-----------|
C|--------2-----------------------|X-------7------------7-----------|
G|--------0-----------------------|X-------9------------9-----------|

A|--------2-------------------5---|7-------7------------7---5-------|
E|10------3-----------3---5-7-----|X-------7------------7-------7---|
C|--------2-----------------------|X-------7------------7-----------|
G|--------0-----------------------|X-------9------------9-----------|

A|--------0-------------------5---|7-------7------------7---5-------|
E|5-------0---------------5-7-----|X-------7------------7-------7---|
C|--------1-----------------------|X-------7------------7-----------|
G|--------2-----------------------|X-------9------------9-----------|

A|--------0---------------0-2-0---|--------2------------------------|
E|5-------0-----------------------|3-------3------------------------|
C|--------1-----------------------|--------2------------------------|
G|--------2-----------------------|--------0------------------------|


C C D D Am Am
So, so you think you can tell Heaven from Hell
G G D D
Blue Skies from pain Can you tell a green field
C C Am Am
From a cold steel rail A A smile from a veil
G G C C
So you think you can tell Did they get you to trade
D D Am Am
Your heroes for ghosts Hot Ashes for trees
G G D D
Hot air for a cool breeze Cold comfort for change
C C Am Am
Did you exchange? A A walk on part in the war

G G
For a lead role in a cage

Riff again

C C D D
How I wish, how I wish you were here

Am Am G G
We're just two lost souls swimming in a fish bowl

D D
Year after year.

C C
Running over the same old ground.

AM AM
What have we found the same old fears

G G
Wish you were here...

riff to end

# This tab is a version played by seeso on youtube in memory of his father
# R.I.P, its the best uke version i have heard and a joy to play, heres the
# link to his video:

http://www.youtube.com/watch?v=jNkVKXXjuX0

# Much love, Anders

⇢ Nie podoba Ci się ta tablatura? Wyświetl 10 innych wersji

taby ukulele według , 25 lis 2009

Komentarze do tabów (7)

Chcesz coś powiedzieć?
Podziel się swoimi wzorami strummingowymi, akordami lub wskazówkami jak grać ten tabulator!
Filtruj według:
blastbird avatar
really good! thanks
13 Nov 2018
Komentarz
kobeshane avatar
flag for US(ISO2) (San Pedro)
Amazing
08 Sep 2012
Komentarz
sexy uke420 avatar
flag for US(ISO2) (Napa )
Don't listen to the haters man this is perfect
14 Sep 2011
Komentarz
clevetown avatar
Does the job if you use your common sense
06 Mar 2010
Komentarz
whetu avatar
very nice, the riff needs to be a bit better formatted for readability but it's right
01 Dec 2009
Komentarz
taylorwilde avatar
flag for US(ISO2) (rochester)
AWESOME MAN. thats legit. i dig it.
30 Nov 2009
Komentarz
panda2 avatar
flag for SY(ISO2) (Damascuss)
good one! But you should edit the tab to add some line breaks : begining of the tab is un readable
26 Nov 2009
Komentarz

Top Taby i chwyty Pink Floyd, nie przegap tych utworów!

O tej piosence: Wish You Were Here

Brak informacji o tej piosence.

Wykonałeś cover Wish You Were Here na swoim ukulele? Podziel się swoją pracą!
Dodaj przeróbkę