Rohan Theme taby ukulele według Lord Of The Rings

Taby ukulele bez chwytów.

9/10
WydrukujDodaj tab do śpiewnika

Tablature / Chords (Cały utwór)

Font size: A- A A+

Album:  nieznane
Trudność: 
5
(zaawansowany)
Akord: D, BmTabulatura (bez chwytów)
A|--0----------------3--2--3/5---5----------|
E|--0----------------------------2----------|
C|--0----------------------------2----------|
G|--2-------2-2-2----------------2--2-------|

A|--0---------------3--2--7---9---12--------|
E|--0-------------------------10------------|
C|--0-------------------------9-------------|
G|--2-------2-2-2---------------------------|

A|--0----------------3--2--3/5---5----------|
E|--0----------------------------2----------|
C|--0----------------------------2----------|
G|--2-------2-2-2----------------2--2-------|

A|--2------------------------------------|
E|--3------2------0--0-------------------|
C|--4-------------0----------------------|
G|--0---0-----0---0----------------------|

A|--0----------------3--2--3/5---5----------|
E|--0----------------------------2----------|
C|--0----------------------------2----------|
G|--2-------2-2-2----------------2--2-------|

A|----------------------------------------|
E|--------------2p0-----------------------|
C|----------------------------------------|
G|--------0-------------------------------|

A|--0---------------3--2--7---9---12--------|
E|--0-------------------------10------------|
C|--0-------------------------9-------------|
G|--2-------2-2-2---------------------------|


----------------------------------------------------------

# Keep practicing this part is really pretty when you get comfortable with it

# Setup: (Em Em)

A|--2------------2--------2------------------|
E|--3---------3------------------------------|
C|--4------4-----------4---------------------|
G|--0---0-----------0------------------------|


# Setup: (Bar 2nd Fret, A A string 5th fret)

A|--5------------5--------5------------------|
E|--2---------2------------------------------|
C|--2------2-----------2---------------------|
G|--2---2-----------2------------------------|


# Setup: (A A string 7th Fret)

A|--7------------3------7---7-----------------------|
E|--0---------0-------------3--------2------0--0----|
C|--0------0----------------4---------------0-------|
G|--0---0-----------0-------0----0-----0----0-------|

----------------------------------------------------------------------


A|-------------0----------------------------|
E|--0-----------------2---------------------|
C|--0-----------------2--2------------------|
G|--0---0--------0----2---------------------|

A|--2---------------0-----------------------|
E|--3--------0-------------2--2-------------|
C|--4--------0-------------2----------------|
G|--0--0-----0--0-----0----2----------------|

A|---------0--------0-----------------------|
E|--0------------2--------------------------|
C|--0------------2--------------------------|
G|--0--0-----0---2--------------------------|

A|---------0--------------------------------|
E|--0------------2--------------------------|
C|--0------------2--2-----------------------|
G|--0--0-----0---2--------------------------|

-------------------------------------------------------


A|--0-----------3--2--3/5---5--3-2---0-------|
E|--0-----------------------2--------0-------|
C|--0-----------------------2--------0-------|
G|--2---2-2-2---------------2--------2-------|

⇢ Nie podoba Ci się ta tablatura? Wyświetl 1 innych wersji

taby ukulele według , 04 kwi 2016

Komentarze do tabów (0)

Nie ma jeszcze żadnych komentarzy :(
Potrzebujesz pomocy, masz wskazówkę którą chcesz się podzielić, czy chcesz po prostu porozmawiać o tej piosence? Rozpocznij dyskusje

Chcesz coś powiedzieć?
Podziel się swoimi wzorami strummingowymi, akordami lub wskazówkami jak grać ten tabulator!

Top Taby i chwyty Lord Of The Rings, nie przegap tych utworów!

O tej piosence: Rohan Theme

Brak informacji o tej piosence.

Wykonałeś cover Rohan Theme na swoim ukulele? Podziel się swoją pracą!
Dodaj przeróbkę