Concerning Hobbits (shire Soundtrack) taby ukulele według Lord Of The Rings

0 Chwyty użyte w piosence:

8.1/10
WydrukujDodaj tab do śpiewnika

Tablature / Chords (Cały utwór)

Font size: A- A A+

Album:  nieznane
Akord: nieznaneChwyty i tabulatura
P                          
A|-------------------------------------3-2-------------2---------------------|
E|-0------0-----0----------0--------1-----------0--1-0-3--0-----0---0--------|
C|-0-0--2----------2--0-------------0-----------0------2--0-0-2-------2--0---|
G|-0---------0---------------0------2-------0---0------0--0-------0----------|
P
A|--2-------3-2------------2-------------------------------------------------|
E|-------1---------0--1-0--3-------------------------------------------------|
C|----2--0---------0-------2-------------------------------------------------|
G|-------2------0--0-------0-------------------------------------------------|

Repeat as desired

taby ukulele według , 01 maj 2016

Komentarze do tabów (2)

Chcesz coś powiedzieć?
Podziel się swoimi wzorami strummingowymi, akordami lub wskazówkami jak grać ten tabulator!
Filtruj według:
F33ph1 avatar
This is not Concerning Hobbits. This is just a weird remix of "In Dreams" from the Two Towers endings credits.
20 Oct 2019
Komentarz
BlazerodL avatar
flag for US(ISO2) (SD)
This is amazing.
09 Sep 2018
Komentarz

Top Taby i chwyty Lord Of The Rings, nie przegap tych utworów!

O tej piosence: Concerning Hobbits (shire Soundtrack)

Brak informacji o tej piosence.

Wykonałeś cover Concerning Hobbits (shire Soundtrack) na swoim ukulele? Podziel się swoją pracą!
Dodaj przeróbkę