Intro Theme taby ukulele według Lord Of The Rings

Taby ukulele bez chwytów.

Oceń piosenkę!
WydrukujDodaj tab do śpiewnika

Tablature / Chords (Cały utwór)

Font size: A- A A+

Album:  nieznane
Akord: nieznaneTabulatura (bez chwytów)
H P                  
|-------------------------------
|------------------5------------
|-----------------------------4-
|---4--5---4-5-4-------5--4-----
H P
|-------------------------------
|------------------5------------
|-------------------------------
|---4--5---4-5-4-------5--4-----
H P
|-------------------------------
|-------------------4-----------
|-----------------------------3-
|---3--4----3-4-3------4--3-----
H P
|-------------------------------
|-------------------4-----------
|-------------------------------
|---3--4----3-4-3------4--3-----

taby ukulele według , 10 sie 2012

Komentarze do tabów (0)

Nie ma jeszcze żadnych komentarzy :(
Potrzebujesz pomocy, masz wskazówkę którą chcesz się podzielić, czy chcesz po prostu porozmawiać o tej piosence? Rozpocznij dyskusje

Chcesz coś powiedzieć?
Podziel się swoimi wzorami strummingowymi, akordami lub wskazówkami jak grać ten tabulator!

Top Taby i chwyty Lord Of The Rings, nie przegap tych utworów!

O tej piosence: Intro Theme

Brak informacji o tej piosence.

Wykonałeś cover Intro Theme na swoim ukulele? Podziel się swoją pracą!
Dodaj przeróbkę