Zelda's Lullaby - The Legend Of Zelda: Ocarina Of Time taby ukulele według Koji Kondo

0 Chwyty użyte w piosence:

9.1/10
WydrukujDodaj tab do śpiewnika

Tablature / Chords (Cały utwór)

Font size: A- A A+

Artysta: 
Album:  nieznane
Akord: nieznaneChwyty i tabulatura
# Tablature Legend:
# -----------------
# S - slide

A||--2--------5----|--0-----------0--|--2--------5----|
E||--3-------------|--2--------3-----|--3-------------|
C||--2-------------|--2--------------|--2-------------|
G||--0-------------|--2--------------|--0-------------|


|--0------------|--2--------5S----|--12--------10S----|
|--2------------|--3--------------|---7---------------|
|--2------------|--4--------------|---7---------------|
|--2------------|--0--------------|---7---------------|


|--5--------3--2--|--0------------||
|--5--------------|--2------------||
|--6--------------|--2------------||
|--7--------------|--2------------||

# Note: This tab is closely based off of Aldrine Guerrero's
# video lesson found here:

# http://www.iamhawaii.com/videos/ukulele-lessons/ukulele-
# lessons-aldrine-lesson-4

# with a couple minor changes.

taby ukulele według , 18 gru 2009

Komentarze do tabów (2)

Chcesz coś powiedzieć?
Podziel się swoimi wzorami strummingowymi, akordami lub wskazówkami jak grać ten tabulator!
Filtruj według:
PanPanPanPanPan avatar
wow 2 songs 1 chart :D (if you know, you know).
21 Feb 2021
Korekta
Macer avatar
Awesome! Love this. Only con to it is that 12-7-7-7 chord. Really hard to reach and hope I can find an alternative. But, other than that, I love this tab!!!
28 Aug 2019
Komentarz

Top Taby i chwyty Koji Kondo, nie przegap tych utworów!

O tej piosence: Zelda's Lullaby - The Legend Of Zelda: Ocarina Of Time

Brak informacji o tej piosence.

Wykonałeś cover Zelda's Lullaby - The Legend Of Zelda: Ocarina Of Time na swoim ukulele? Podziel się swoją pracą!
Dodaj przeróbkę