Ode To Joy taby ukulele według Beethoven, Ludwig Van

12 Chwyty użyte w piosence: G, D, Em, A, C, C/A#, Fm/G#, Dm, E, Am, C7, F

9.9/10
WydrukujDodaj tab do śpiewnika

Tablature / Chords (Cały utwór)

Font size: A- A A+

Rok:  2017
Trudność: 
3.92
(zaawansowany)
Akord: nieznaneChwyty i tabulatura
G G            D D            Em Em    A A      G G  D D
A||------------|------------|------------|------------||
E||0--0--1--3--|3--1--0-----|---------0--|0.----------||
C||------------|---------2--|0--0--2-----|----2-2-----||
G||------------|------------|------------|------------||

C C C/A# C/A# G G Fm/G# Fm/G# C C G G C C
A||------------|------------|------------|------------||
E||0--0--1--3--|3--1--0-----|---------0--|------------||
C||------------|---------2--|0--0--2-----|2.--0-0-----||
G||------------|------------|------------|------------||

G G C C G G C C Dm Dm E E Am AmD D G G
A||------------|------------|------------|------------||
E||------0-----|---0-1-0----|---0-1-0----|------3-----||
C||2--2-----0--|2---------0-|2---------2-|0--2--------||
G||------------|------------|------------|------------||

C C C7 C7 F F Fm/G# Fm/G# C C Dm Dm G G C C
A||------------|------------|------------|------------||
E||0--0--1--3--|3--1--0-----|---------0--|------------||
C||------------|---------2--|0--0--2-----|2.--0-0-----||
G||------------|------------|------------|------------||


Freude, schöner G Götterfunken,
Tochter aus Elysium,
Wir betreten feuertrunken,
Himmlische, dein Heiligtum!
Deine Zauber binden wieder,
Was die Mode streng geteilt;
Alle Menschen werden Brüder,
Wo dein sanfter Flügel weilt.

⇢ Nie podoba Ci się ta tablatura? Wyświetl 5 innych wersji

taby ukulele według , 01 wrz 2014

Komentarze do tabów (2)

Chcesz coś powiedzieć?
Podziel się swoimi wzorami strummingowymi, akordami lub wskazówkami jak grać ten tabulator!
Filtruj według:
rachelnieves778 avatar
There's something you should know about me... f1nd me on rachelnieves_mooo_com change _ to dot
06 Jul 2024
Komentarz
 avatar
Usunięte konto mobile
so easy and so beautyful
05 Apr 2022
Komentarz

Top Taby i chwyty Beethoven, Ludwig Van, nie przegap tych utworów!

O tej piosence: Ode To Joy

Brak informacji o tej piosence.

Wykonałeś cover Ode To Joy na swoim ukulele? Podziel się swoją pracą!
Dodaj przeróbkę