Legends Of Zelda - Ocarina Of Time - Song Of Storms Tabulatur von Video Game Music

Ukulele Tabs ohne Akkorde.

10/10
druckenTab ins SongBook hinzufügen

Tablature / Chords (Ganzer Song)

Font size: A- A A+

Künstler: 
Album:  unbekannt
Key: unbekanntTabulaturen (ohne Akkorde)
A|----0-0-----2-----3-3-----2------5-5-----2-----3-3-----2-|
E|----1-1-0---0---1-1-1-0---0------1-1-0---0---1-1-1-0---0-|
C|--2-2-2------------------------2-------------------------|
G|----------0-------2-2---0--------2-2---0-------2-2---0---|

A|----0-0-----2-----3-3-----2--|
E|----1-1-0---0---1-1-1-0---0--|
C|--2-2-2----------------------|
G|----------0-------2-2---0----|

A|--------5----------5----7---8---7--8--7--3--0----|
E|-----1----------1--------------------------------|
C|--2----------2-----------------------------------|
G|-------------------------------------------------|

A|--0------------0----0----------------|
E|---------1------------------1-----0--|
C|-----2------------------2------------|
G|------------0------------------0-----|

A|----0-0-----2-----3-3-----2-----5-5---5--|
E|----1-1-0---0---1-1-1-0---0-----1-1-1-1--|
C|--2-2-2----------------------------------|
G|----------0-------2-2---0-----3-------2--|

A|--------5----------5----7---8---7--8---7--3-0---0-------------0----------|
E|-----1----------1---------------------------------------1----------------|
C|--2----------2----------------------------------------2------------2-----|
G|-----------------------------------------------------------0-------------|

A|----5-5-----2-----3-3-----2--|
E|----1-1-0---0---1-1-1-0---0--|
C|--2--------------------------|
G|----2-2---0-------2-2---0----|

Tabulatur von , 28 Jul 2017

Tab Kommentare (0)

Noch kein Kommentar vorhanden :(
Brauchen Sie Hilfe, haben Sie einen Tipp zu teilen, oder wollen einfach nur über dieses Lied sprechen? Starte die Diskussion!

Kommentieren
Teilen Sie Ihre Strumming-Muster, Akkorde oder Tipps zum Spielen dieser Registerkarte mit!

Top Tabs & Akkorde von Video Game Music, verpassen Sie diese Songs nicht!

Über dieses Lied: Legends Of Zelda - Ocarina Of Time - Song Of Storms

Keine Informationen über dieses Lied.

Haben Sie Legends Of Zelda - Ocarina Of Time - Song Of Storms auf Ihrer Ukulele gecovert? Teilen Sie Ihr Werk!
Cover abgeben