Uncertainty Tabulatur von The Fray

3 Im Lied verwendete Ukulelengriffe :

Tab ins SongBook hinzufügen

Ansehen dieser Akkorde für Bariton

Transpose chords:
Tablature / ChordsFont size: A- A A+

Sie wissen nicht wie man einen Tab oder Akkorde liest ?
Schauen Sie sich diesen uke Unterricht an:

Ukulelen-Unterricht


A#m7 chordA#m7 F#maj9 chordF#maj9 G chordG
e|--0-----0------x------------------------------------------------|
b|--1-----1------1------------------------------------------------|
G|--0-----0------0------------------------------------------------|
D|--2-----2------0------------------------------------------------|
A|--0-----0------x------------------------------------------------|
E --x-----1------3------------------------------------------------



Intro and you can play the rest of the verses like this
A#m7 chordA#m7 F#maj9 chordF#maj9 G chordG
e|--0---------0---------x-----------------------------------------|
b|--1---------1---------1-----------------------------------------|
G|--0---------0---------0-----------------------------------------|
D|--2---------2---------0-----------------------------------------|
A|--0---------0---------x-----------------------------------------|
E --x------ --1----- ---3---1-------------------------------------




A#m7 chordA#m7 F#maj9 chordF#maj9 G chordG
Uncertainty is killing me
A#m7 chordA#m7 F#maj9 chordF#maj9 G chordG
And I'm certainly not asleep
A#m7 chordA#m7 F#maj9 chordF#maj9 G chordG
Maybe I've gone far to deep
A#m7 chordA#m7 F#maj9 chordF#maj9 G chordG
Maybe I'm just far to weak
A#m7 chordA#m7 F#maj9 chordF#maj9 G chordG
Ands that's the last place
G chordG A#m7 chordA#m7 F#maj9 chordF#maj9 G chordG
I want------- to be the last place



A#m7 chordA#m7 G chordG F#maj9 chordF#maj9
And there is so much we don't know
A#m7 chordA#m7 G chordG F#maj9 chordF#maj9
So we love and we hope that it----- holds

same as previous verse
Thousands were lost maybe more
The question remains what is this for
Maybe it came unexpected
Maybe I'm left unprotected
And that's the last place
I want to be the last place



A#m7 chordA#m7 G chordG F#maj9 chordF#maj9
And there is so much we don't know
A#m7 chordA#m7 G chordG F#maj9 chordF#maj9
So we love and we hope that it holds
A#m7 chordA#m7 G chordG F#maj9 chordF#maj9
And either we say or we show
A#m7 chordA#m7 G chordG F#maj9 chordF#maj9
So I'm going to fight for my----- own

I'm not quite sure about this but i believe its the same as the chorus


F#maj9 chordF#maj9 A#m7 chordA#m7 G chordG F#maj9 chordF#maj9
I'm holding on until the last
A#m7 chordA#m7 G chordG F#maj9 chordF#maj9
I'm holding on until there's nothing left
I'm holding on until the last
I'm holding on until there's nothing left

 

Tab Kommentare (0)
Noch kein Kommentar vorhanden :(
Brauchen Sie Hilfe, haben Sie einen Tipp zu teilen, oder wollen einfach nur über dieses Lied sprechen? Starte die Diskussion!

Sie müssen angemeldet sein, um an der Diskussion teilnehmen zu können
oder Beitreten

 

Über dieses Lied

Keine Informationen über dieses Lied.