Solitude Is Bliss Tabulatur von Tame Impala

Ukulele Tabs ohne Akkorde.

druckenTab ins SongBook hinzufügen
Tablature / ChordsFont size: A- A A+

Sie wissen nicht wie man einen Tab oder Akkorde liest ?
Schauen Sie sich diesen uke Unterricht an:

Ukulelen-Unterricht

A-9---9----9---9----9----9---9----9--------------------------7---7----7----9---|
E-10--10---10--10---10---10--10---10---8---56-56--56-56--56--8---8----8----10--| x6
C-9---9----9---9----9----9---9----9----7---55-55--55-55--55--7---7----7----9---|
G-11--11---11--11---11---11--11---11---9---------------------12--12---12---11--

A------------------------------------------------------------------|
E------------------------------------------------------------------|
C------------------------------------------------------------------|
G---------------7--------------7--------------7--------------------|

A-----------------------------|
E-----------------------------| x4
C-----------------------------|
G-7--7--7--7--7---9--7--7--7--|

A-----------------------------|
E-3--3--3--3--3---5--3--3--3--| x2
C-----------------------------|
G-----------------------------|

A-----------------------------|
E-----------------------------| x2
C-----------------------------|
G-7--7--7--7--7---9--7--7--7--|

A-------------------------------------|
E--------5----------------------------|
C--------4----------------------------|
G--------6----------------------------|

A-------------------------------------------|
E--------6--------------------------5-------|
C--------5--------------------------4-------|
G--------7--------------------------6-------|

A-9---9----9---9----9----9---9----9--------------------------7---7----7----9---|
E-10--10---10--10---10---10--10---10---8---56-56--56-56--56--8---8----8----10--| x4
C-9---9----9---9----9----9---9----9----7---55-55--55-55--55--7---7----7----9---|
G-11--11---11--11---11---11--11---11---9---------------------12--12---12---11--

A-----------------------------|
E-----------------------------| x4
C-----------------------------|
G-7--7--7--7--7---9--7--7--7--|

A-------------|
E------3---5--|
C--5----------|
G-------------|

A-----------------------------|
E-3--3--3--3--3---5--3--3--3--| x2
C-----------------------------|
G-----------------------------|

A-----------------------------|
E-----------------------------| x2
C-----------------------------|
G-7--7--7--7--7---9--7--7--7--|

A-------------------------------|
E----5--------------------------|
C----4--------------------------|
G----6--------------------------|

A----------------------|
E----6-----------5-----|
C----5-----------4-----|
G----7-----------6-----|

A-9---9----9---9----9----9---9----9--------------------------7---7----7----9---|
E-10--10---10--10---10---10--10---10---8---56-56--56-56--56--8---8----8---10---| x4
C-9---9----9---9----9----9---9----9----7---55-55--55-55--55--7---7----7---9----|
G-11--11---11--11---11---11--11---11---9---------------------12--12---12---11--

A-----------------------------|
E-----------------------------| x4
C-----------------------------|
G-7--7--7--7--7---9--7--7--7--|

A-------------|
E------3---5--|
C--5----------|
G-------------|

A----------------------------------------------------------------------|
E-3----3--3-------3----------------------6-----------------------------| x2
C--------------5-----5-----3-5----3-5--3---2-3---2-3-2-----------------|
G-----------------------5------------------------------5-3-5--5--5-3-1-|

A----------------------------------------------------------------------------|
E-1--1--1-1--1--1-1--1--1--1-1--1--1-1--6--6--6-6--6--6-6--4--4--4-4--4--4-4-|
C-0--0--0-0--0--0-0--0--0--0-0--0--0-0--5--5--5-5--5--5-5--3--3--3-3--3--3-3-|
G-2--2--2-2--2--2-2--2--2--2-2--2--2-2--7--7--7-7--7--7-7--5--5--5-5--5--5-5-

A------------------------------------------------------------------|
E-1--1--1-1--1--1-1--1--1--1-1--1--1-1--6--6--6-6--6--6-6-----4----|
C-0--0--0-0--0--0-0--0--0--0-0--0--0-0--5--5--5-5--5--5-5-----3----|
G-2--2--2-2--2--2-2--2--2--2-2--2--2-2--7--7--7-7--7--7-7-----5----|

A-------------------------------------|
E-6-----------------------------------|
C-3-----------------------------------|
G-8-----------------------------------|

A-8--6---8-6--8--6----8-6--8-6------------------------|
E-9----9---9----9--9----7----5--5-5--5-5--5-5---------| x3
C-8----8---8----8--8----6----4--4-4--4-4--4-4---------|
G-10-6--10-6-10-6--10-6-10-6--8---9--9-9--9-9--9-9----|

A--------5-------------------9----------|
E----------------------------10---------|
C------7-4-------------------9----------|
G------5-5-------------------11---------|

A-9---9----9---9----9----9---9----9--------------------------7---7----7----9---|
E-10--10---10--10---10---10--10---10---8---56-56--56-56--56--8---8----8----10--| x8
C-9---9----9---9----9----9---9----9----7---55-55--55-55--55--7---7----7----9---|
G-11--11---11--11---11---11--11---11---9---------------------12--12---12---11--|

 

Tab Kommentare (1)
Sie müssen angemeldet sein, um an der Diskussion teilnehmen zu können
oder Beitreten

 

alexs4404 avatar
flag for US(ISO2) (lewisville)
Is there a more simple tab for Soltitude Is Bliss
16 Oct 2017
Über dieses Lied

Keine Informationen über dieses Lied.