Pirates Of The Caribean Tabulatur von Sungha Jung

Ukulele Tabs ohne Akkorde.

Tab ins SongBook hinzufügen
Tablature / ChordsFont size: A- A A+

Sie wissen nicht wie man einen Tab oder Akkorde liest ?
Schauen Sie sich diesen uke Unterricht an:

Ukulelen-Unterricht

A||-------------------|-------------------|-------------------|
E||-------------------|-------------------|-------------------|
C||--2----2--2--2--2--|--2----2--2--2--2--|--2----2--2--2--2--|
G||-------------------|-------------------|-------------------|

---------------3--|--5----5-----5-----|--1-------1--------|-------------5--3--|
------------------|----------------0--|--1----1-----1--3--|--0----0-----------|
--2----2----------|--2-------2--------|-------------------|--0-------0--------|
------------2-----|-------------------|-------------------|-------------------|
H
--3---5-----------3--|--5----5-----5-----|-------------------|
---------------------|----------------0--|--1----1--3--1--3--|
--2------2--2--------|--2-------2--------|--7----------------|
---------------2-----|-------------------|-------------------|
H
-------------5--3--|--3---5-----------3--|--5----5-----5-----|
--0----0-----------|---------------------|----------------0--|
--0-------0--------|--2------2--2--------|--2-------2--------|
-------------------|---------------2-----|-------------------|

-------------------|--0-------0--------|-------5-----5-----|
--3----3--5--3--5--|--6----6-----5--3--|--5-------------0--|
--9----------------|-------------------|--2-------2--------|
-------------------|-------------------|-------------------|
s
--1-------1---------|--0--5--0----5-----|--0--------------|--0-----------3--|
--1----1-----3---5--|--5-------------1--|--0------0----1--|--0--------------|
--------------------|-------------------|---------L-------|-----------------|
--------------------|-------------------|--2------L-------|--2--------2-----|

--5----5-----5-----|--1-------1--------|-------------5--3--|
----------------0--|--1----1-----1--3--|--0----0-----------|
--2-------2--------|-------------------|--0-------0--------|
-------------------|-------------------|-------------------|
H
--3---5-----------3--|--5----5-----5-----|-------------------|
---------------------|----------------0--|--1----1--3--1--3--|
--2------2--2--------|--2-------2--------|--7----------------|
---------------2-----|-------------------|-------------------|
H
-------------5--3--|--3---5-----------3--|--5----5-----5-----|
--0----0-----------|---------------------|----------------0--|
--0-------0--------|--2------2--2--------|--2-------2--------|
-------------------|---------------2-----|-------------------|

-------------------|--0-------0--------|-------5-----5-----|
--3----3--5--3--5--|--6----6-----5--3--|--5-------------0--|
--9----------------|-------------------|--2-------2--------|
-------------------|-------------------|-------------------|
s
--1-------1---------|--0--5--0----5-----|-------------5--3--|--5----5---------|
--1----1-----3---5--|--5-------------1--|--0----0-----------|------------0----|
--------------------|-------------------|----------4--------|--2----2----0----|
--------------------|-------------------|-------------------|-----------------|
s
--1----1-----------|--0--------7--4--|--0--------x----|--0-----------5--|
--1----1----3---5--|--0--------------|----------------|--1--------1-----|
--2----2-----------|-----------------|-----------x----|-----------------|
-------------------|--2--------------|--2--------x----|--3--------------|

--0--------x----|--0----4----0----|--0-------------|--8----8----8----|
----------------|--0----0----1----|--0--------x----|--5----5----5----|
-----------x----|-----------------|-----------x----|--2----2----2----|
--3--------x----|--2----2----3----|--2-------------|-----------------|

--8--8------x----|-----------------|------------x----|--8----8----8----|
--6--5------x----|--3----3----3----|--3--5------x----|--5----5----5----|
--2--2-----------|--0----0----0----|--0--2-----------|--2----2----2----|
-----------------|-----------------|-----------------|-----------------|

--8--8-----------|--5-----3-----2-----|--5--------5-----|------------------|
--6--5-----------|--3-----1-----0-----|--------------0--|--1-------3--5----|
--2--2------4----|--9-----7-----6-----|--4--------------|--2---------------|
-----------------|--------------------|-----------------|-------2----------|

-----------------|-----------------|------------------|------------------|
--3---------0----|--1----3----5----|--3---------1--3--|--5-------3--1----|
--0--------------|--7--------------|--0---------------|--2---------------|
-------0---------|-------0---------|-------0----------|-------0--L--L----|

--0--------------|--5----------3----|--5-------5-------|------------------|
--0----1----0----|----------0-------|-------------0----|--1-------0--1----|
-----------------|--2---------------|--2---------------|--2---------------|
-----------------|-------2----------|-------2----------|-------2----------|

-----------------|--0--------------|--1---------5-----|-----------------|
--3----1----3----|--5----3----1----|-------1-------0--|--1----3----5----|
--0--------------|-----------------|------------------|-----------------|
-------0---------|-----------------|--3---------------|-----------------|

-----------------|------------------|--5-------5-------|--8--------x----|
--6---------3----|--1-------3--0----|-------------0----|--5-------------|
--9--------------|--2---------------|--2---------------|--2--------x----|
-------3---------|-------0----------|-------2----------|--7--------x----|
~
--0-------------|--8----8---------|-------------x----|--5--------x----|
--1--------x----|--5----5---------|--5--3------------|--3-------------|
-----------x----|--2---------2----|--0----------x----|--9--------x----|
--3-------------|-----------------|-------------x----|--x--------x----|

--5--------x----|--0--------------|--5-------5-------|--8--------x----|
--1--------x----|--0----1----0----|-------------0----|--5-------------|
--4-------------|-----------------|--2---------------|--2--------x----|
--2-------------|-----------------|-------2----------|--7--------x----|
~
--0-------------|--8----8---------|-------------x----|--5--------x----|
--1--------x----|--5----5---------|--5--3------------|--3-------------|
-----------x----|--2---------2----|--0----------x----|--9--------x----|
--3-------------|-----------------|-------------x----|--x--------x----|

--5--------x----|--0--------------|--5--------L----||
--1--------x----|--0----1----0----|----------------||
--4-------------|-----------------|--4--------L----||
--2-------------|-----------------|--2--------L----||

 

Tab Kommentare (0)
Noch kein Kommentar vorhanden :(
Brauchen Sie Hilfe, haben Sie einen Tipp zu teilen, oder wollen einfach nur über dieses Lied sprechen? Starte die Diskussion!

Sie müssen angemeldet sein, um an der Diskussion teilnehmen zu können
oder Beitreten

 

Über dieses Lied

Keine Informationen über dieses Lied.