Black Magic Tabulatur von Slayer

Ukulele Tabs ohne Akkorde.

Song bewerten!
druckenTab ins SongBook hinzufügen

Tablature / Chords (Ganzer Song)

Font size: A- A A+

Künstler: 
Album: 
Jahr:  1983
Key: unbekanntTabulaturen (ohne Akkorde)
Intro

A|---------------------------|--7---7-8--7-8-10-8--5-8-7---|
E|000000000000000000000000000|00-00----00------------------|
C|---------------------------|-----------------------------|
G|---------------------------|-----------------------------|

A|-------2-------2\3-------2-------------------------|
E|-------3-------3\4-------3-------0-2---------------|
C|-4-4-4-4-4-4-4-4\5-4-4-4-4-4-4-4-0-2---------------|
G|---------------------------------0-2---------------|

A|--7---7-8--7-8-10-8--5-8-7---|
E|00-00----00------------------|
C|-----------------------------|
G|-----------------------------|

Verse

A|-2---------------2---2---3-2---------------2---2---3-2--|
E|-3---------------3---3---4-3---------------3---3---4-3--|
C|-4-4-4-4-4-4-4-4-4-4-4-5-4-4-4-4-4-4-4-4-4-4-4-4-5-4----|
G|--------------------------------------------------------|

Chorus

A|-0---2---0---2-----------------|
E|-0---2---2---3-----------------|
C|-0---3---1---2-----------------|
G|-2---4---2---0-----------------|

Interlude

A|0-0-0-0-0-0-0-0---0-0---0-0-----------------|
E|0---------------5-----5-----4---------------|
C|0-------------------------------------------|
G|2-------------------------------------------|

⇢ Nicht zufrieden mit dieser Tabulatur? 1 andere Version(en) anzeigen

Tabulatur von , 20 Jan 2014

Tab Kommentare (0)

Noch kein Kommentar vorhanden :(
Brauchen Sie Hilfe, haben Sie einen Tipp zu teilen, oder wollen einfach nur über dieses Lied sprechen? Starte die Diskussion!

Kommentieren
Teilen Sie Ihre Strumming-Muster, Akkorde oder Tipps zum Spielen dieser Registerkarte mit!

Über dieses Lied: Black Magic

Keine Informationen über dieses Lied.

Haben Sie Black Magic auf Ihrer Ukulele gecovert? Teilen Sie Ihr Werk!
Cover abgeben