Aloha 'oe (farewell To Thee) (duet) Tabulatur von Queen Lili'uoakalani

4 Im Lied verwendete Ukulelengriffe: G, C, D7, G7

Tab ins SongBook hinzufügen
Tablature / ChordsFont size: A- A A+

Sie wissen nicht wie man einen Tab oder Akkorde liest ?
Schauen Sie sich diesen uke Unterricht an:

Ukulelen-Unterricht

Chords for UKULELE 2: G G C C D7 D7 G7 G7

A|-----2---0-----------------2--0-----0-0-3-2--0---0----3--|
E|---3-------3-2-3--0--------------4------------------2----|
C|-2-------------------2---2-------------------------------|
G|---------------------------------------------------------|
UKULELE 1


A|--------2--3---3-----2---2--3----3--3----3---3-------3----|
E|--------3--0---0-----3---3--2----2--2----2---2-------2----|
C|--------2--0---0-----2---2--2----2--2----2---2-------2----|
G|--------0--0---0-----0---0--2----2--2----2---2-------2----|
UKULELE 2
____________________________________________________________
A|-2---0-------------------------0---------2-0--------------|
E|-------3-2-3-0---------3-2--0-----3-2-2-------3---3----0-3|
C|----------------2---2--------------------------------2----|
G|----------------------------------------------------------|
UKULELE 1


A|-2-2---3---3----2---2--2----3--3----3----3----2----2-2-3-3|
E|-3-3---0---0----3---3--3----0--0----2----2----3----3-3-0-0|
C|-2-2---0---0----2---2--2----0--0----2----2----2----2-2-0-0|
G|-0-0---0---0----0---0--0----0--0----2----2----0----0-0-0-0|
UKULELE 2
_____________________________________________________________

A|-3---------------2--------------------0--0---2-3--2-------|
E|------0------3--------3-3--2---1-2-3----------------------|
C|---------2------------------------------------------------|
G|----------------------------------------------------------|
UKULELE 1


A|-3--3-3-----2----2----2-2--3---3-3-3--3--3---3----2--2--2-|
E|-0--0-0-----3----3----3-3--2---2-2-2--2--2---2----3--3--3-|
C|-0--0-0-----2----2----2-2--2---2-2-2--2--2---2----2--2--2-|
G|-0--0-0-----0----0----0-0--2---2-2-2--2--2---2----0--0--0-|
UKULELE 2
_____________________________________________________________

A|---------------------3------------------------------------|
E|-3---------0----3---------0-------3-----------------------|
C|-------2----------------------2---------------------------|
G|----------------------------------------------------------|
UKULELE 1


A|-2--2--2---3--3-3----3---3----2---2---2---2---------------|
E|-1--1--1---0--0-0----0---0----3---3---3---3---------------|
C|-2--2--2---0--0-0----0---0----2---2---2---2---------------|
G|-0--0--0---0--0-0----0---0----0---0---0---0---------------|
UKULELE 2
_____________________________________________________________

A|-2---------------------0----------------------------------|
E|----------3---2---3---------0--(2)--3---------------------|
C|----------------------------------------------------------|
G|----------------------------------------------------------|
UKULELE 1

hold
A|-2--2--2--2---3---3----3----3---3---2---2---2---2----2----|
E|-3--3--3--3---2---2----2----2---2---3---3---3---3----3----|
C|-2--2--2--2---2---2----2----2---2---2---2---2---2----2----|
G|-0--0--0--0---2---2----2----2---2---0---0---0---0----0----|
UKULELE 2

 

Tab Kommentare (1)
Sie müssen angemeldet sein, um an der Diskussion teilnehmen zu können
oder Beitreten

 

 avatar
flag for (ISO2)
Please Rate.
04 Dec 2014
Über dieses Lied

Keine Informationen über dieses Lied.