Betterman Tabulatur von Pearl Jam

Ukulele Tabs ohne Akkorde.

Tab ins SongBook hinzufügen
Tablature / ChordsFont size: A- A A+

Sie wissen nicht wie man einen Tab oder Akkorde liest ?
Schauen Sie sich diesen uke Unterricht an:

Ukulelen-Unterricht

A|-5--5-5-0-3--3-3-3-5--2-2-5-2--2-2-5-|----5-5---5--5-5---2--5-5-5-5--5-5-2--|
E|-2--2-2-2-3--3-3-3-3--3-3-3-3--3-3-3-|-0--0-0-0-0--0-0-0----3-3---3--3-3----|
C|-2--2-2-2-2--2-2-2----2-2---2--2-2---|-0------0--------0-2--2-2-2----2-2-2--|
G|-2--2-2-2-2--2-2-2-0--0-0-0-0--0-0-0-|-0--0-0-0-0--0-0-0-0--0-0-0-0--0-0-0--|

A|-5--5-5-0----------5--2-2-5-2--2-2-5-|----5-5---5--5-5---2--5-5-5-5--5-5-2--|
E|-2--2-2-2-0--0-0-0-3--3-3-3-3--3-3-3-|-0--0-0-0-0--0-0-0----3-3---3--3-3----|
C|-2--2-2-2-0--0-0-0----2-2---2--2-2---|-0------0--------0-2--2-2-2----2-2-2--|
G|-2--2-2-2-0--0-0-0-0--0-0-0-0--0-0-0-|-0--0-0-0-0--0-0-0-0--0-0-0-0--0-0-0--|

A|-5--5-5-0----------5--2-2-5-2--2-2-5-|----5-5---5--5-5---2--5-5-5-5--5-5-2--|
E|-2--2-2-2-0--0-0-0-3--3-3-3-3--3-3-3-|-0--0-0-0-0--0-0-0----3-3---3--3-3----|
C|-2--2-2-2-0--0-0-0----2-2---2--2-2---|-0------0--------0-2--2-2-2----2-2-2--|
G|-2--2-2-2-0--0-0-0-0--0-0-0-0--0-0-0-|-0--0-0-0-0--0-0-0-0--0-0-0-0--0-0-0--|

A|-5--5-5-0----------5--2-2-5-2--2-2-5-|----5-5---5--5-5---2--5-5-5-5--2-2-2--|
E|-2--2-2-2-0--0-0-0-3--3-3-3-3--3-3-3-|-0--0-0-0-0--0-0-0----3-3---3---------|
C|-2--2-2-2-0--0-0-0----2-2---2--2-2---|-0------0--------0-2--2-2-2----2-2-2--|
G|-2--2-2-2-0--0-0-0-0--0-0-0-0--0-0-0-|-0--0-0-0-0--0-0-0-0--0-0-0-0--0-0-0--|

A|----5-----5-5-0--4-4-4-4-0-|----5-----5-5-0--4-4-4-4-|----------------------|
E|-0--3-0-0-3-0-0--0-0-0-0---|-0--3-0-0-3-0-0--0-0-0-0-|----------------------|
C|-0-------------------------|-0-----------------------|----------------------|
G|-0--0-0-0-0-0-2--2-2-2-2---|-0--0-0-0-0-0-2--2-2-2-2-|----------------------|
P
A|----5-----5----------------|--------------4--4-4-4-4-|----------------------|
E|----3-0-0-3-0----------0---|-----0--------0--0-0-0-0-|----------------------|
C|-0-------------------------|------------0------------|----------------------|
G|----0-0-0-0---0-2b4r2-0--0-|-------0------2--2-2-2-2-|----------------------|

A|----5-----5-5-0--4-4-4-4-0-|-2--5-2-2-5--5-2-2-2--2--|----------------------|
E|-0--3-0-0-3-0-0--0-0-0-0---|-0--3-0-0-3--0-0-0-0--0--|----------------------|
C|-0-------------------------|-4-----------------4--4--|----------------------|
G|-0--0-0-0-0-0-2--2-2-2-2---|-0--0-0-0-0--0-0-0-0--0--|----------------------|

A|----5-----5------4-4-4-4---|-------------------------|----------------------|
E|-0--3-0-0-3------0-0-0-0---|-------------------------|----------------------|
C|-0-------------------------|-4--4-4--4--4-4--4--4-4--|----------------------|
G|----0-0-0-0------2-2-2-2---|-------------------------|----------------------|

A|-5--5-5-0----------5--2-2-5-2--2-2-5-|----5-5---5--5-5---2--5-5-5-5--5-5-2--|
E|-2--2-2-2-0--0-0-0-3--3-3-3-3--3-3-3-|-0--0-0-0-0--0-0-0----3-3---3--3-3----|
C|-2--2-2-2-0--0-0-0----2-2---2--2-2---|-0------0--------0-2--2-2-2----2-2-2--|
G|-2--2-2-2-0--0-0-0-0--0-0-0-0--0-0-0-|-0--0-0-0-0--0-0-0-0--0-0-0-0--0-0-0--|
H H P
A|-------------------------------------|--------------------------------------|
E|----------------------------5-----5--|----------5--3-----3------------------|
C|----------------------------6-----6--|----------6-----6-----6---------------|
G|-------------------------------4-----|-------------------------7------------|

A|-5--5-5-0----------5--2-2-5-2--2-2-5-|----5-5---5--5-5---2--5-5-5-5--5-5-2--|
E|-2--2-2-2-0--0-0-0-3--3-3-3-3--3-3-3-|-0--0-0-0-0--0-0-0----3-3---3--3-3----|
C|-2--2-2-2-0--0-0-0----2-2---2--2-2---|-0------0--------0-2--2-2-2----2-2-2--|
G|-2--2-2-2-0--0-0-0-0--0-0-0-0--0-0-0-|-0--0-0-0-0--0-0-0-0--0-0-0-0--0-0-0--|
H P S
A|-------------------------------------|--------------------------------------|
E|----------------------------5-----5--|-------------------3------------------|
C|----------------------------6--------|----------------------6---------------|
G|-------------------------------4-----|-------------------------7-----7------|

A|-5--5-5-0----------5--2-2-5-2--2-2-5-|----5-5---5--5-5---2--5-5-5-5--5-5-2--|
E|-2--2-2-2-0--0-0-0-3--3-3-3-3--3-3-3-|-0--0-0-0-0--0-0-0----3-3---3--3-3----|
C|-2--2-2-2-0--0-0-0----2-2---2--2-2---|-0------0--------0-2--2-2-2----2-2-2--|
G|-2--2-2-2-0--0-0-0-0--0-0-0-0--0-0-0-|-0--0-0-0-0--0-0-0-0--0-0-0-0--0-0-0--|
S H P ~~~
A|-------------------------------------|--------------------------------------|
E|---------------5-------0-------------|--------------------------------------|
C|-2--------2----2-----2---2-----------|----0---------2-----------------------|
G|-------------------------------------|------0-2b4r2-0-2---------------------|

A|-5--5-5-0----------5--2-2-5-2--2-2-5-|----5-5---5--5-5---2--5-5-5-5--5-5-2--|
E|-2--2-2-2-0--0-0-0-3--3-3-3-3--3-3-3-|-0--0-0-0-0--0-0-0----3-3---3--3-3----|
C|-2--2-2-2-0--0-0-0----2-2---2--2-2---|-0------0--------0-2--2-2-2----2-2-2--|
G|-2--2-2-2-0--0-0-0-0--0-0-0-0--0-0-0-|-0--0-0-0-0--0-0-0-0--0-0-0-0--0-0-0--|
H S ~ S S S S S
A|-------------------------------------|--------------------------------------|
E|---0---------------------5-----------|--------------------------------5-----|
C|-2---2-------------------------------|--------------------------------------|
G|-2-------------------2-4-------------|---------------------2-44-2-44-2--7---|

A|-5--5-5-0----------5--2-2-5-2--2-2-5-|----5-5---5--5-5---2--5-5-5-5--5-5-2--|
E|-2--2-2-2-0--0-0-0-3--3-3-3-3--3-3-3-|-0--0-0-0-0--0-0-0----3-3---3--3-3----|
C|-2--2-2-2-0--0-0-0----2-2---2--2-2---|-0------0--------0-2--2-2-2----2-2-2--|
G|-2--2-2-2-0--0-0-0-0--0-0-0-0--0-0-0-|-0--0-0-0-0--0-0-0-0--0-0-0-0--0-0-0--|
S P H H H S P
A|-------------------------------------|--------------------------------------|
E|-------------------------------------|--------------------------5----2-0----|
C|-------------------------------------|-------9----7---7-----7---2---2----2--|
G|-------------------------------4-2-0-|-4--4--7--4-7---7--9--7-----4---------|

A|-5--5-5-0----------5--2-2-5-2--2-2-5-|----5-5---5--5-5---2--5-5-5-5--2-2-2--|
E|-2--2-2-2-0--0-0-0-3--3-3-3-3--3-3-3-|-0--0-0-0-0--0-0-0----3-3---3---------|
C|-2--2-2-2-0--0-0-0----2-2---2--2-2---|-0------0--------0-2--2-2-2----2-2-2--|
G|-2--2-2-2-0--0-0-0-0--0-0-0-0--0-0-0-|-0--0-0-0-0--0-0-0-0--0-0-0-0--0-0-0--|
H H P H P H H H H
A|--------------b--------5-------------|--------------------------------------|
E|-5---2-5---5-----5-------5---5-5---2-|---0---5--------5-----------3---3-----|
C|-2---2-2-----4-6-2---2---4-2-2-4-6-2-|-2--------9--------7--9---------------|
G|---4-----4---------4---x-------------|----07----7--4-----4--7--9----7---fb--|

A|----5-----5-5-0--4-4-4-4-0-|----5-----5-5-0--4-4-4-4-|----------------------|
E|-0--3-0-0-3-0-0--0-0-0-0---|-0--3-0-0-3-0-0--0-0-0-0-|----------------------|
C|-0-------------------------|-0-----------------------|----------------------|
G|-0--0-0-0-0-0-2--2-2-2-2---|-0--0-0-0-0-0-2--2-2-2-2-|----------------------|

A|----5-----5---4--4-4-4-4---|----5-----5---4--4-4-4-4-|----------------------|
E|----3-0-0-3---0--0-0-0-0---|----3-0-0-3-0-0--0-0-0-0-|----------------------|
C|-0-------------------------|-0-----------------------|----------------------|
G|----0-0-0-0---2--2-2-2-2---|----0-0-0-0---2--2-2-2-2-|----------------------|

A|----5-----5-5-0--4-4-4-4-0-|-2--5-2-2-5--5-2-2-2--2--|----------------------|
E|-0--3-0-0-3-0-0--0-0-0-0---|-0--3-0-0-3--0-0-0-0--0--|----------------------|
C|-0-------------------------|-4-----------------4--4--|----------------------|
G|-0--0-0-0-0-0-2--2-2-2-2---|-0--0-0-0-0--0-0-0-0--0--|----------------------|
S P S S
A|----5-----5-----4--4-4-4-4-|-------------------------|----------------------|
E|----3-0-0-3-0---0--0-0-0-0-|-------------------------|----------------------|
C|-0-------------------------|-----------------------2-|----------------------|
G|----0-0-0-0-----2--2-2-2-2-|-----------4-2-0-0-2-4---|----------------------|

A|-5--5-5-0----------5--2-2-5-2--2-2-5-|----5-5---5--5-5---2--5-5-5-5--5-5-2--|
E|-2--2-2-2-0--0-0-0-3--3-3-3-3--3-3-3-|-0--0-0-0-0--0-0-0----3-3---3--3-3----|
C|-2--2-2-2-0--0-0-0----2-2---2--2-2---|-0------0--------0-2--2-2-2----2-2-2--|
G|-2--2-2-2-0--0-0-0-0--0-0-0-0--0-0-0-|-0--0-0-0-0--0-0-0-0--0-0-0-0--0-0-0--|
S H S
A|--------------------------------------------------------------------------------|
E|----------------------------3--5-5-----5----5----5----5----5--5-----5-------|
C|--------------------------------------------------------------6--------6----|
G|------------------------------------11----11----11----11----9--------4----------|

A|-5--5-5-0----------5--2-2-5-2--2-2-5-|----5-5---5--5-5---2--5-5-5-5--5-5-2--|
E|-2--2-2-2-0--0-0-0-3--3-3-3-3--3-3-3-|-0--0-0-0-0--0-0-0----3-3---3--3-3----|
C|-2--2-2-2-0--0-0-0----2-2---2--2-2---|-0------0--------0-2--2-2-2----2-2-2--|
G|-2--2-2-2-0--0-0-0-0--0-0-0-0--0-0-0-|-0--0-0-0-0--0-0-0-0--0-0-0-0--0-0-0--|
P P H P H
A|-------------------------------------|--------------------------------------|
E|-3-2---5-----------3------0----------|--------------------------------------|
C|-2---2---4-2---6-6----6-2------------|--------------------------------------|
G|-------------4--------------0--------|--------------------------------------|

A|-5--5-5-0----------5--2-2-5-2--2-2-5-|----5-5---5--5-5---2--5-5-5-5--5-5-2--|
E|-2--2-2-2-0--0-0-0-3--3-3-3-3--3-3-3-|-0--0-0-0-0--0-0-0----3-3---3--3-3----|
C|-2--2-2-2-0--0-0-0----2-2---2--2-2---|-0------0--------0-2--2-2-2----2-2-2--|
G|-2--2-2-2-0--0-0-0-0--0-0-0-0--0-0-0-|-0--0-0-0-0--0-0-0-0--0-0-0-0--0-0-0--|
S P
A|-------------------------------------|--------------------------------------|
E|-------------------------------------|--------------------------------------|
C|-------------------------------------|--------------------------------------|
G|--------------------------4-2-0------|--------------------------------------|

A|-5--5-5-0----------5--2-2-5-2--2-2-5-|----5-5---5--5-5---2--5-5-5-5--5-5-2--|
E|-2--2-2-2-0--0-0-0-3--3-3-3-3--3-3-3-|-0--0-0-0-0--0-0-0----3-3---3--3-3----|
C|-2--2-2-2-0--0-0-0----2-2---2--2-2---|-0------0--------0-2--2-2-2----2-2-2--|
G|-2--2-2-2-0--0-0-0-0--0-0-0-0--0-0-0-|-0--0-0-0-0--0-0-0-0--0-0-0-0--0-0-0--|

A|--------------------------------------|--------------------------------------|
E|----------------------------5--------|--------------------------------------|
C|-------------------------------------|--------------------------------------|
G|-------------------------------11--7--|--------------------------------------|

A|-5--5-5-0----------5--2-2-5-2--2-2-5-|----5-5---5--5-5---2--5-5-5-5--5-5-2--|
E|-2--2-2-2-0--0-0-0-3--3-3-3-3--3-3-3-|-0--0-0-0-0--0-0-0----3-3---3--3-3----|
C|-2--2-2-2-0--0-0-0----2-2---2--2-2---|-0------0--------0-2--2-2-2----2-2-2--|
G|-2--2-2-2-0--0-0-0-0--0-0-0-0--0-0-0-|-0--0-0-0-0--0-0-0-0--0-0-0-0--0-0-0--|
S S
A|-------------------------------------|---------------------------------------|
E|---------------------------------5-3-|-----------------------------5--------|
C|-------------------------------2-----|--------------------------------------|
G|-------------------------------4-6-3-|-------------------------12-7---fb-----|

A|-5--5-5-0----------5--2-2-5-2--2-2-5-|----5-5---5--5-5---2--5-5-5-5--5-5-2--|
E|-2--2-2-2-0--0-0-0-3--3-3-3-3--3-3-3-|-0--0-0-0-0--0-0-0----3-3---3--3-3----|
C|-2--2-2-2-0--0-0-0----2-2---2--2-2---|-0------0--------0-2--2-2-2----2-2-2--|
G|-2--2-2-2-0--0-0-0-0--0-0-0-0--0-0-0-|-0--0-0-0-0--0-0-0-0--0-0-0-0--0-0-0--|
P P S S
A|-------------------------------------|--------------------------------------|
E|-------------------------------------|--------------------------5-3---------|
C|-------------------------------------|------------------------2-------------|
G|----------------------------2-b4r2-0-|------------------------4-6-4---------|

A|-5--5-5-0----------5--2-2-5-2--2-2-5-|----5-5---5--5-5---2--5-5-5-5--5-5-2--|
E|-2--2-2-2-0--0-0-0-3--3-3-3-3--3-3-3-|-0--0-0-0-0--0-0-0----3-3---3--3-3----|
C|-2--2-2-2-0--0-0-0----2-2---2--2-2---|-0------0--------0-2--2-2-2----2-2-2--|
G|-2--2-2-2-0--0-0-0-0--0-0-0-0--0-0-0-|-0--0-0-0-0--0-0-0-0--0-0-0-0--0-0-0--|
P H P P H H P
A|---5------------0-----5-7-5----------|----------------4-------------5-------|
E|---------0--0------------------------|-----0--------------------------------|
C|-2-----2--br--2----------------------|-2-2-----2---2----------2---2---------|
G|-----2--------------2-------2b4r2-0--|-------0---0------0-2-0---0-----------|

A|-5--5-5-0----------5--2-2-5-2--2-2-5-|----5-5---5--5-5---2--5-5-5-5--5-5-2--|
E|-2--2-2-2-0--0-0-0-3--3-3-3-3--3-3-3-|-0--0-0-0-0--0-0-0----3-3---3--3-3----|
C|-2--2-2-2-0--0-0-0----2-2---2--2-2---|-0------0--------0-2--2-2-2----2-2-2--|
G|-2--2-2-2-0--0-0-0-0--0-0-0-0--0-0-0-|-0--0-0-0-0--0-0-0-0--0-0-0-0--0-0-0--|
H P P H S P
A|-5-7-5-----------0-5--5---5-7-5------|-----------2---0----------------------|
E|--------0--2-0-----2------3---3------|---0---0------------------------------|
C|----------b-r--2-2-------------------|---------2---2------------------------|
G|-2---2-------------2-(0)x----------0-|-0---0--------------------------------|

A|-5--5-5-0----------5--2-2-5-2--2-2-5-|----5-5---5--5-5---2--5-5-5-5--5-5-2--|
E|-2--2-2-2-0--0-0-0-3--3-3-3-3--3-3-3-|-0--0-0-0-0--0-0-0----3-3---3--3-3----|
C|-2--2-2-2-0--0-0-0----2-2---2--2-2---|-0------0--------0-2--2-2-2----2-2-2--|
G|-2--2-2-2-0--0-0-0-0--0-0-0-0--0-0-0-|-0--0-0-0-0--0-0-0-0--0-0-0-0--0-0-0--|

A|-5--5-5-0----------5--2-2-5-2--2-2-5-|----5-5---5--5-5---2--5-5-5-5--5-5-2--|
E|-2--2-2-2-0--0-0-0-3--3-3-3-3--3-3-3-|-0--0-0-0-0--0-0-0----3-3---3--3-3----|
C|-2--2-2-2-0--0-0-0----2-2---2--2-2---|-0------0--------0-2--2-2-2----2-2-2--|
G|-2--2-2-2-0--0-0-0-0--0-0-0-0--0-0-0-|-0--0-0-0-0--0-0-0-0--0-0-0-0--0-0-0--|

 

Tab Kommentare (0)
Noch kein Kommentar vorhanden :(
Brauchen Sie Hilfe, haben Sie einen Tipp zu teilen, oder wollen einfach nur über dieses Lied sprechen? Starte die Diskussion!

Sie müssen angemeldet sein, um an der Diskussion teilnehmen zu können
oder Beitreten

 

Über dieses Lied

Keine Informationen über dieses Lied.