Let Her Go Tabulatur von Passenger

Ukulele Tabs ohne Akkorde.

6.3/10
druckenTab ins SongBook hinzufügen

Tablature / Chords (Ganzer Song)

Font size: A- A A+

Künstler: 
Jahr:  2012
Key: unbekanntTabulaturen (ohne Akkorde)
intro 

A|-0-2-0----------------2-----------------------|
E|--------3----3-0-3-0--3-----------------------|
C|----------2-----------------------------------|
G|----------------------------------------------|



A|-0-2-0----------------2--0-------------------|
E|--------3----3-0-3-0--3--2-------------------|
C|----------2----------------------------------|
G|---------------------------------------------|



A|-0-2-0----------------5-2----0--2------------|
E|--------3----3-0-3-0-------3----0------------|
C|----------2----------------2-----------------|
G|---------------------------------------------|

⇢ Nicht zufrieden mit dieser Tabulatur? 35 andere Version(en) anzeigen

Tabulatur von , 16 Aug 2014

Tab Kommentare (0)

Noch kein Kommentar vorhanden :(
Brauchen Sie Hilfe, haben Sie einen Tipp zu teilen, oder wollen einfach nur über dieses Lied sprechen? Starte die Diskussion!

Kommentieren
Teilen Sie Ihre Strumming-Muster, Akkorde oder Tipps zum Spielen dieser Registerkarte mit!

Über dieses Lied: Let Her Go

Keine Informationen über dieses Lied.

Haben Sie Let Her Go auf Ihrer Ukulele gecovert? Teilen Sie Ihr Werk!
Cover abgeben