The Legend Of Zelda - Great Fairy Fountain Tabulatur von Koji Kondo

0 Im Lied verwendete Ukulelengriffe:

8.4/10
druckenTab ins SongBook hinzufügen

Tablature / Chords (Ganzer Song)

Font size: A- A A+

Künstler: 
Album:  unbekannt
Key: unbekanntAkkorde und Tabulaturen
Hi, first time submitting and making tabs. 
I kinda figured this out on a whim while playing around so
please be kind if something doesn't sound right.

A|-12-----10-----9-----10-----10-----8-----7-----8-----|
E|---10-----10----10-----10------8-----8-----8-----8---|
C|-----10-----10----10-----10------9-----9-----9-----9-|
G|-----------------------------------------------------|

A|-8------7------6------7------7------5-----4-----5-----|
E|---6------6------6------6------5------5-----5-----5---|
C|-----7------7------7------7------5------5-----5-----5-|
G|------------------------------------------------------|

Tabulatur von , 23 Feb 2010

Tab Kommentare (8)

Kommentieren
Teilen Sie Ihre Strumming-Muster, Akkorde oder Tipps zum Spielen dieser Registerkarte mit!
Filtern nach:
astrocrat avatar
sounds really nice! ^^
03 Jun 2020
Kommentar
goofy_goober03 avatar
I would put a cappo on the first fret but that's just me. otherwise it's great
06 Apr 2020
Kommentar
Hummi avatar
flag for GB(ISO2) (Manchester)
Nice work. I like it :0
22 Mar 2019
Kommentar
samuelg2 avatar
flag for US(ISO2) (Farminton)
This one's pretty good, but I found a version that I personally like better at: http://www.gametabs.net/legend-zelda-ocarina-time/great-fairy-fountain-0
Good work though
09 Mar 2015
Kommentar
freecake avatar
flag for US(ISO2) (Union)
how do i read this S:
09 Dec 2012
Kommentar
Chipwich avatar
flag for US(ISO2) (WILMINGTON)
This makes my fingers hurt a lot... am I doing it wrong?
30 Aug 2012
Frage
nekojeff avatar
flag for FR(ISO2) (Paris)
Perfectly matches the ukulele tone !
24 Feb 2010
Kommentar
Willow01 avatar
flag for ES(ISO2) (Granada)
it's very close
23 Feb 2010
Kommentar

Top Tabs & Akkorde von Koji Kondo, verpassen Sie diese Songs nicht!

Über dieses Lied: The Legend Of Zelda - Great Fairy Fountain

Keine Informationen über dieses Lied.

Haben Sie The Legend Of Zelda - Great Fairy Fountain auf Ihrer Ukulele gecovert? Teilen Sie Ihr Werk!
Cover abgeben