One Summer's Day (spirited Away) Tabulatur von Joe Hisaishi

Ukulele Tabs ohne Akkorde.

10/10
druckenTab ins SongBook hinzufügen

Tablature / Chords (Ganzer Song)

Font size: A- A A+

Künstler: 
Album:  unbekannt
Key: unbekanntTabulaturen (ohne Akkorde)
A----7-----3----1----5-----------------------12-------------------------------10-------------0h2h3-3-3-3-3---0h2h3-3-3-3-2-3---0h2h3-3-3-3-3--10---3--5-
E---5-----0----1----5---0--12-12-12-12-10-12----12-1010----7-10-10-10-10-8-10----10-8-7-8--------3---------------1-----------------0------------------3-
C--5-----2----2----1----4----------------------------------5------------------------------------------------------------------------------------------2-
G-0-----0-----------------------------------------------------------------------------------------------------------------------------------------------

A----------------------12--------------------------------10-------------0h2h3-3-3-3-3---0h2h3-3-3-3-2-3---0h2h3-3-3-3-3--10--8p6p5-
E-12-12-12-12-12-10-12----12-1010----10-10-10-10-10-8-10----10-8-7-8--------1-------1-------0-----------------1-------1----------4-
C-11----------------------------------9----------------------------9------------------------------------------3------------------0-
G----------------------------------------------------------------------------------------------------------------------------------

A-7--8--10-10--10-10--8-7-5-5-7p3-------7h8h10-10-10-10-10-8-7-5-5-7--3-5-7--0-3--0--------3-5-7--0-3--0-
E-------10-10--10-10---------------1--0-----10-10-10-10-10----------------7-------0--1---------7-------1-
C-4--5-----------------------------2--0-----------------------------------6-------0-----2------6-------0-
G--------------------------------------------------------------------------------------------------------

A-0-2-3-3-5-3-2------------------------------------------0-2-3-3-5-3-2----------------------------------------------------3----1-3-
E----------------0-3-5-5-3-1-3--3-3-1-1---1----1-3--4-3------0-0-----0--0-3-5-5-3-1-3--3-3-1-1---1--3-4-6-4-4-3-4--3h4h6--1--4---4-
C---------------------------------3-----3-2--0---3-----------0-0------------0-------2----------3--------------------------0------0-
G--------------------------------------------------------------------0--------------0----------------------------------------------

A-3-2-3-5----3-2-3----------0----0-0-0-0---0-5-2--0-3---2-----0----10--8--3--5-----------1--1--3----7-5-7-12-7---5-3-5-10-5---0-2-3----------0-2-3-5-7----
E----------3--------0-0---0---0----------3----------3------3--------------------0---3----1--1--3----5------------5-----------------------0-1---------7--0-
C-------2---------------2---------------------------2---------------7--5--0--2--4---2----0--0--2----5------------4----------------0--0-2-------------6--2-
G----------------------------------------------------------------------------------------------------------------0----------------------------------------

A-0-2-3-3-5-3-2-2-----0-0---------------------------------0-2-3-3-5-3-2---------------------------------------------------3----1-3--3-2-3-5----3-2-3----0-2---0-2-7-
E-----------------0-3-----3-1-3--3-3-1-1---1----1-3--4-3------0-0-----0--0-3-5-5-3-1-3--3-3-1-1---1--3-4-6-4-4-3-4--3h4h6-1--4---1-----------3-----0--1-----1-----7-
C----------------------------------3-----3-2--0---3-----------0-0------------0-------2----------3-------------------------0------3-----------------0--------------5-
G---------------------------------------------------------------------0--------------0----------------------------------------------------------------------------0-

Tabulatur von , 06 Mai 2019

Tab Kommentare (1)

Kommentieren
Teilen Sie Ihre Strumming-Muster, Akkorde oder Tipps zum Spielen dieser Registerkarte mit!
Filtern nach:
inezmartin715 avatar
Trace a constellation on my skin and tell me its story with just a whisper. I bet I can decipher it with a touch of something more... f1nd me on inezmartin_mooo_com change _ to dot
09 Jul 2024
Kommentar

Top Tabs & Akkorde von Joe Hisaishi, verpassen Sie diese Songs nicht!

Über dieses Lied: One Summer's Day (spirited Away)

Keine Informationen über dieses Lied.

Haben Sie One Summer's Day (spirited Away) auf Ihrer Ukulele gecovert? Teilen Sie Ihr Werk!
Cover abgeben