K.o. K.o. (the Most Of My Worries Are The Least Of Your Concerns) (Intro) Tabulatur von Empire! Empire! (I Was A Lonely Estate)

Ukulele Tabs ohne Akkorde.

druckenTab ins SongBook hinzufügen
Tablature / ChordsFont size: A- A A+

Sie wissen nicht wie man einen Tab oder Akkorde liest ?
Schauen Sie sich diesen uke Unterricht an:

Ukulelen-Unterricht

capo on 1st fret

its all done in clean


A|------------------------------------------|
E|---0---0--------0---0----------reapeat----|
C|--7---3--2-----7---3---2------------------|
G|----0---0--------0---0--------------------|



A|--8888--8888--8888-----3--3333------------|
E|------------------------------------------|
C|--7777--7777--7777-----3--3333------------|
G|------------------------------------------|

 

Tab Kommentare (0)
Noch kein Kommentar vorhanden :(
Brauchen Sie Hilfe, haben Sie einen Tipp zu teilen, oder wollen einfach nur über dieses Lied sprechen? Starte die Diskussion!

Sie müssen angemeldet sein, um an der Diskussion teilnehmen zu können
oder Beitreten

 

Über dieses Lied

Keine Informationen über dieses Lied.