Free Tabulatur von Donavon Frankenreiter

5 Im Lied verwendete Ukulelengriffe: G,Em,C,Am,F

Tab ins SongBook hinzufügen
Tablature / ChordsFont size: A- A A+

Sie wissen nicht wie man einen Tab oder Akkorde liest ?
Schauen Sie sich diesen uke Unterricht an:

Ukulelen-Unterricht

INTRO: G G   Em Em   C C   Am Am  x2


VERSE 1:

GEm
We xxxxx xxx xxxx xxxx xx xxx xxxxxx xxx
C C Am Am
We xxxxx drift xxx xxxxx xxxxx xxx xxx xxxxxxx
GEm
Pass xx x xxxxx xx xxxxx xxx
CAm
One xxx xx xxx xxx xxx xxx


CHORUS:

GFC
And xxxx xx xxxx
GFC
Free
GFC
Free
GFC
Free


VERSE 2:

G G Em Em
Here xxxxx xxxxxx xxxxx xxx the xxxxxxxx tide
CAm
We xxxxxx drop xxxx xxxxx xxx xxx xxxxxx
GEm
When xxxx xxx xxxxxxx xxxx xxx xx xx
CAm
I xxxxx we’ll xxxx xx xxxx xxx xxx xxxxx xxxxx xxxx


CHORUS:

GFC
And xxxx xx xxxx
GFC
Free
GFC
Free
GFC
Free


BRIDGE:

A|-2-------|----2------|--------3--|--------5--3\2|
E|-3-------|---3----3--|-0---0-----|-0---0--------|
C|-2-------|4--------4-|-0---------|-0------------|
G|-0-------|-----------|-0---------|-2------------|

A|-2----2----|------2----|-----3---3/5--5/7---|---10\7---7\5-|
E|-3--3---3--|----3----3-|-0--0---------------|--(12)---(8)--|
C|-2-------0-|-4---------|-0------------------|--(12)---(7)--|
G|-0---------|-0---------|-0------------------|--------------|


GEm
On x lifeboat xxxxxxx xxxx
C C Am Am
With xxx drunken xxxxxx xxx xxx xxxxx xxxxx
GEm
Well x xxxx xxxx xxx xxxx xxxx xxxxxx
C C Am Am
And xxxxx place xxxxx xxxx x xxxxxxxx xxxx

CHORUS:

GFC
And xxxx xx xxxx
GFC
Free
GFC
Free
GFC
Free

 

Tab Kommentare (1)
Sie müssen angemeldet sein, um an der Diskussion teilnehmen zu können
oder Beitreten

 

 avatar
flag for (ISO2)
very good
07 Nov 2010
Über dieses Lied

Keine Informationen über dieses Lied.