The Meat Cap Tabulatur von Crystal Dust In The Meadows

5 Im Lied verwendete Ukulelengriffe: Bm7, G, A, F, Dmaj7

Tab ins SongBook hinzufügen
Tablature / ChordsFont size: A- A A+

Sie wissen nicht wie man einen Tab oder Akkorde liest ?
Schauen Sie sich diesen uke Unterricht an:

Ukulelen-Unterricht

A--------------------------3--4--10---|
E--------------3--4--5-----------------|
C--2--4--5-----------------------------| <--------Ukuele Tab
G---------------------------------------|

(chorus)
Bm7 Bm7
Ask your ma'm and pap
G G
If you can get a meat cap
Bm7 Bm7
its cool fo' sho
G G
It's Meat on the go!

(Verse)
A A
And did you know when Chris Columbus made it on his way?
F F
He had meat from his meat cap each and every day

A--2-2-2-2--2-2-2-2/4-4-4-4--3-2
E--2-2-2-2--2-2-2-2/4-4-4-4--3-2
C--2-2-2-2--2-2-2-2/4-4-4-4--3-2
G--2-2-2-2--2-2-2-2/4-4-4-4--3-2

A--2-2-2-2--2-2-2-2/4-4-4-4--3-2-1-0
E--2-2-2-2--2-2-2-2/4-4-4-4--3-2-1-0
C--2-2-2-2--2-2-2-2/4-4-4-4--3-2-1-0
G--2-2-2-2--2-2-2-2/4-4-4-4--3-2-1-0

A-----------------0--4--5-
E---------0--2--3---------
C-0--1--2-----------------
G-------------------------

Dmaj7 Dmaj7X3 Bm7 Bm7
Meat Cap

 

Tab Kommentare (0)
Noch kein Kommentar vorhanden :(
Brauchen Sie Hilfe, haben Sie einen Tipp zu teilen, oder wollen einfach nur über dieses Lied sprechen? Starte die Diskussion!

Sie müssen angemeldet sein, um an der Diskussion teilnehmen zu können
oder Beitreten

 

Über dieses Lied

Keine Informationen über dieses Lied.