Hang Me Up To Dry Tabulatur von Cold War Kids

Ukulele Tabs ohne Akkorde.

Tab ins SongBook hinzufügen
Tablature / ChordsFont size: A- A A+

Sie wissen nicht wie man einen Tab oder Akkorde liest ?
Schauen Sie sich diesen uke Unterricht an:

Ukulelen-Unterricht

# Note: This song is essentially made up of two components: the riff 
# (basically the first four bars of the song) and the solo (basically
# the first two bars of the solo section below.) The enitre song is
# more or less a composition of these six bars, played repeatedly with
# minor variations. So, don't be discouraged by the length of this tab.
# The song is simpler than it looks. :D


# Main Riff:
# ----------

A||-----------------------------|----------------------------|
E||o----------------------------|----------------------------|
C||o----------------------------|----------------------------|
G||---0---12---12--0---12---12--|--0---12---12--0---12---12--|


|----------------------------|------------------------------|
|--0---12---12--0---12---12--|--0---12---12--0-0-12--0--10--|
|----------------------------|------------------------------|
|----------------------------|------------------------------|


|----------------------------|------------------------------|
|----------------------------|------------------------------|
|----------------------------|------------------------------|
|--0---12---12--0---12---12--|--0---12---12--0-0-12--0--10--|


|----------------------------|-------------------------------||
|--0---12---12--0---12---12--|--0---12---12--0-0-12--0--10--o||
|----------------------------|------------------------------o||
|----------------------------|-------------------------------||


|----------------------------|----------------------------|
|----------------------------|----------------------------|
|----------------------------|----------------------------|
|--0---12---12--0---12---12--|--0---12---12--0---12---12--|


|----------------------------|------------------------|
|--0---12---12--0---12---12--|--0---12---12--0--------|
|----------------------------|------------------------|
|----------------------------|------------------------|


|----------------------------|----------------------------|
|----------------------------|----------------------------|
|----------------------------|----------------------------|
|--0---12---12--0---12---12--|--0---12---12--0---12---12--|


|----------------------------|------------------------------|
|--0---12---12--0---12---12--|--0---12---12--0-0-12--0--10--|
|----------------------------|------------------------------|
|----------------------------|------------------------------|


|----------------------------|----------------------------|
|----------------------------|----------------------------|
|----------------------------|----------------------------|
|--0---12---12--0---12---12--|--0---12---12--0---12---12--|


|----------------------------|-------------------------|
|--0---12---12--0---12---12--|--0---12---12--0-0-------|
|----------------------------|-------------------------|
|----------------------------|-------------------------|

# First Solo:
# -----------

|--------------------------5-5-5-|
|----------------3-3-3-3-6-------|
|--2-2-2-2-2--4------------------|
|--------------------------------|


|---------------------------------|
|-----------------3-3-3-3-x-6-6-6-|
|--2-2-2-2-2-2-4------------------|
|---------------------------------|


|-------------------------5----|
|-----------------3-3-3-3------|
|--2-2-2-2-2-2-4---------------|
|------------------------------|


|---------------------------------|
|-----------------3-6-6-6-6-6-6-6-|
|--2-2-2-2-2-2-4------------------|
|---------------------------------|


|---------------------------5-5-5-|
|-----------------3-3-3-3-6-------|
|--2-2-2-2-2-2-4------------------|
|---------------------------------|


|-------------------------------|
|-----------------3-3-3-3-6--6--|
|--2-2-2-2-2-2-4----------------|
|-------------------------------|


|-------------------------5----|
|-----------------3-3-3-3------|
|--2-2-2-2-2-2-4---------------|
|------------------------------|


|---------------------------------|
|-----------------3-3-3-3-x-6-6-6-|
|--2-2-2-2-2-2-4------------------|
|---------------------------------|

# Main Riff Again:
# ----------------

|----------------------------|------------------------------|
|----------------------------|------------------------------|
|----------------------------|------------------------------|
|--0---12---12--0---12---12--|--0---12---12--0-0-12--0--10--|


|----------------------------|------------------------------|
|--0---12---12--0---12---12--|--0---12---12--0-0-12--0--10--|
|----------------------------|------------------------------|
|----------------------------|------------------------------|


|---------------------------|--------------------------|
|---------------------------|--------------------------|
|---------------------------|--------------------------|
|--0---12---12--0---12------|--0---12------0---12------|


|--------------------------|--------------------------|
|--0---12------0---12------|--0---12------0---12------|
|--------------------------|--------------------------|
|--------------------------|--------------------------|


|--------------------------|--------------------------|
|--------------------------|--------------------------|
|--------------------------|--------------------------|
|--0---12------0---12------|--0---12------0---12------|


|--------------------------|-----------------------|
|--0---12------0---12------|--0---12------0--------|
|--------------------------|-----------------------|
|--------------------------|-----------------------|


|----------------------------|----------------------------|
|----------------------------|----------------------------|
|----------------------------|----------------------------|
|--0---12---12--0---12---12--|--0---12---12--0---12---12--|


|----------------------------|------------------------------|
|--0---12---12--0---12---12--|--0---12---12--0-0-12--0--10--|
|----------------------------|------------------------------|
|----------------------------|------------------------------|


|----------------------------|----------------------------|
|----------------------------|----------------------------|
|----------------------------|----------------------------|
|--0---12---12--0---12---12--|--0---12---12--0---12---12--|


|----------------------------|----------------------------|
|--0---12---12--0---12---12--|--0---12---12--0-0-12--0----|
|----------------------------|----------------------------|
|----------------------------|----------------------------|

# Second Solo:
# ------------

|---------------------------5-5-5-|
|-----------------3-3-3-3-6-------|
|--2-2-2-2-2-2-4------------------|
|---------------------------------|


|-------------------------------|
|-----------------3-3-3-3-6--6--|
|--2-2-2-2-2-2-4----------------|
|-------------------------------|


|-------------------------5----|
|-----------------3-3-3-3------|
|--2-2-2-2-2-2-4---------------|
|------------------------------|


|---------------------------------|
|-----------------3-6-6-6-6-6-6-6-|
|--2-2-2-2-2-2-4------------------|
|---------------------------------|


|---------------------------5-5-5-|
|-----------------3-3-3-3-6-------|
|--2-2-2-2-2-2-4------------------|
|---------------------------------|


|-------------------------------|
|-----------------3-3-3-3-6--6--|
|--2-2-2-2-2-2-4----------------|
|-------------------------------|


|-------------------------5----|
|-----------------3-3-3-3------|
|--2-2-2-2-2-2-4---------------|
|------------------------------|


|---------------------------------|
|-----------------3-6-6-6-6-6-6-6-|
|--2-2-2-2-2-2-4------------------|
|---------------------------------|

# Main Riff Once More:
# --------------------

|----------------------------|------------------------------|
|----------------------------|------------------------------|
|----------------------------|------------------------------|
|--0---12---12--0---12---12--|--0---12---12--0-0-12--0--10--|


|----------------------------|------------------------------|
|--0---12---12--0---12---12--|--0---12---12--0-0-12--0--10--|
|----------------------------|------------------------------|
|----------------------------|------------------------------|


||-----------------------------|----------------------------|
||o----------------------------|----------------------------|
||o----------------------------|----------------------------|
||---0---12---12--0---12---12--|--0---12---12--0---12---12--|


|----------------------------|-----------------------------||
|--0---12---12--0---12---12--|--0---12---12--0---12---12--o||
|----------------------------|----------------------------o||
|----------------------------|-----------------------------||

 

Tab Kommentare (3)
Sie müssen angemeldet sein, um an der Diskussion teilnehmen zu können
oder Beitreten

 

Ukulelinator avatar
That may have just been a typo, bit the riff is supposed to be played on the G string then the E strong. If you meant that you prefer playing it on the E and C strings rather than the G and E strings, I can definitely see where you are coming from. The actual riff is played using the notes I've specified here three or more octaves lower, so although your way sacrifices key accuracy, it does increase pitch accuracy. If that sounds better to you, I say go for it.
10 Oct 2011
Benpaco avatar
flag for US(ISO2) (California)
Eh, its OK at best. Does not sound much like the original song. It sounds a little better if the riff is played on the E string then the C string instead of the G string and then the C string. Maybe that's just me though.
29 Sep 2011
kmseano avatar
flag for US(ISO2) (Bloomington)
Nice tab. It sounds good played over a funky G-Em progression too.
20 Aug 2010
Über dieses Lied

Keine Informationen über dieses Lied.