Sheik's Theme Tab de uke por Zelda

Ukulele Tab sem cifras.

Avalie a canção!
ImprimirAdicionar tab ao seu Livro de Música

Tablature / Chords (Música Inteira)

Font size: A- A A+

Artista: 
Álbum:  desconhecido
Tom: desconhecidoTablatura (sem cifras)
A|-3---0---------|
E|-3-3-3-3-0-----|
C|-0---0---0-0-2-|
G|-0---0---0---0-|

A|-3---0---------|
E|-3-3-3-3-0-3---|
C|-0---0---0---2-|
G|-0---0---0---0-|


A|---------0-3-5-10-7-3-5-|
E|-----0-3-3---0----0---3-| 2x
C|-0-2-2---0---0----0---0-|
G|-2-0-0---0---0----0---0-|


A|---0-3---0-3------------|
E|-3-----3-----3--0-------|
C|-0-----0-----0--0-0-2---|
G|-0-----0-----0--0---0---|

Tab de uke por , 07 Out 2015

Comentários da tab (0)

Nenhum comentário ainda :(
Precisa de ajuda, tem uma dica para compartilhar ou simplesmente quer falar sobre essa música? Inicie a discussão!

Tem algo para dizer?
Compartilhe seus Padrões de batida, acordes ou dicas para tocar esta aba!

Top Tablaturas e Cifras por Zelda, não perca estas músicas!

Sobre esta música: Sheik's Theme

Nenhuma informação sobre esta música.

Você cobriu Sheik's Theme em seu Ukulele? Compartilhe seu trabalho!
Enviar um cover