Heads Will Roll Tab de uke por Yeah Yeah Yeahs

Ukulele Tab sem cifras.

6/10
ImprimirAdicionar tab ao seu Livro de Música

Tablature / Chords (Música Inteira)

Font size: A- A A+

Artista: 
Álbum:  desconhecido
Tom: desconhecidoTablatura (sem cifras)
A|---------11-----9----|
E|-12---11--------------|
C|--------------------|
G|--------------------|

A|---------11-----9----|
E|-9--11---------------|
C|--------------------|
G|--------------------|

A|---------------------------------|
E|-----------------------------|
C|-----------------------------|
G|--13---11--8----13---11--6-------|

A|---------------------------------|
E|-----------------------------|
C|-----------------------------|
G|--13--6--16--6---17--6--16--6----|

A|--------------------|
E|-----------------|
C|-----------------|
G|--13--11--6--11-----|

A|-14--14--14--14---13--13--13--13---6-6-6-6-6-6-6-6----|
E|-12--12--12--12---11--11--11--11---4-4-4-4-4-4-4-4----|
C|-16--16--16--16---15--15--15--15---8-8-8-8-8-8-8-8----|
G|----------------------------------------------|

A|-------------------8---8---8---8---8---8---6---6---------|
E|-4-4-4-4--6-6-6-6--11--11--11--11--11--11--9--9--------|
C|-1-1-1-1--3-3-3-3--8--8--8--8--8--8--6--6--------|
G|-6-6-6-6--8-8-8-8--13--13--13--13--13--13--11--11--------|

A|----------6---6---6---6----8---8---8---8---8---8---8---8-----|
E|-7-7-7-7--9--9--9--9---11--11--11--11--11--11--11--11----|
C|-4-4-4-4--6--6--6--6---8--8--8--8--8--8--8--8----|
G|-9-9-9-9--11--11--11--11---13--13--13--13--13--13--13--13----|
A|-11---9--13-----11---13---11------------|
E|--------11-----9---11----------------|
C|-15---13--15-----13---15---15------------|
XG|-13---11----------------13------------|

A|----------------------------------------------------------|
E|--------------------------------------------------|
C|--------------------------------------------------|
G|--13----11--6--13----11--6--13---11--6---13---6--11--6----|

A|----------------------------------------------------------|
E|--------------------------------------------------|
C|--------------------------------------------------|
G|--13----11--6--13----11--6--13---11--6---13---6--11--6----|

A|-14--14--14--14---13--13--13--13---6-6-6-6-6-6-6-6----|
E|-12--12--12--12---11--11--11--11---4-4-4-4-4-4-4-4----|
C|-16--16--16--16---15--15--15--15---8-8-8-8-8-8-8-8----|
G|----------------------------------------------|

A|-------------------8---8---8---8---8---8---6---6---------|
E|-4-4-4-4--6-6-6-6--11--11--11--11--11--11--9--9--------|
C|-1-1-1-1--3-3-3-3--8--8--8--8--8--8--6--6--------|
G|-6-6-6-6--8-8-8-8--13--13--13--13--13--13--11--11--------|

A|----------6---6---6---6----8---8---8---8---8---8---8---8-----|
E|-7-7-7-7--9--9--9--9---11--11--11--11--11--11--11--11----|
C|-4-4-4-4--6--6--6--6---8--8--8--8--8--8--8--8----|
G|-9-9-9-9--11--11--11--11---13--13--13--13--13--13--13--13----|

A|----------6---6---6---6----8---8---8---8---8---8---8---8-----|
E|-7-7-7-7--9--9--9--9---11--11--11--11--11--11--11--11----|
C|-4-4-4-4--6--6--6--6---8--8--8--8--8--8--8--8----|
G|-9-9-9-9--11--11--11--11---13--13--13--13--13--13--13--13----|

A|-----------------------------------------------------------|
E|---------------------------------------------------|
C|---------------------------------------------------|
G|--13---11---8----13---16---17----13---11---8---6--8---13---|

Tab de uke por , 15 Abr 2017

Comentários da tab (0)

Nenhum comentário ainda :(
Precisa de ajuda, tem uma dica para compartilhar ou simplesmente quer falar sobre essa música? Inicie a discussão!

Tem algo para dizer?
Compartilhe seus Padrões de batida, acordes ou dicas para tocar esta aba!

Top Tablaturas e Cifras por Yeah Yeah Yeahs, não perca estas músicas!

Sobre esta música: Heads Will Roll

Nenhuma informação sobre esta música.

Você cobriu Heads Will Roll em seu Ukulele? Compartilhe seu trabalho!
Enviar um cover