Viba Tab de uke por Verdena

6 Acordes usados na música: C, Em, G, A, D, C7M

Avalie a canção!
ImprimirAdicionar tab ao seu Livro de Música

Tablature / Chords (Música Inteira)

Font size: A- A A+

Artista: 
Álbum:  desconhecido
Dificuldade: 
3.5
(Intermediario)
Tom: desconhecidoCifras e Tablatura
[VERSO] 
C C Em Em G G
|3--3--3-3-3-3--3-3--3-3-3-3-2-2--2-2-2-2--2-2--2-2-2-2-
|0--0--0-0-0-0--0-0--0-0-0-0-3-3--3-3-3-3--3-3--3-3-3-3-
|0--0--0-0-0-0--0-0--0-0-0-0-4-4--4-4-4-4--2-2--2-2-2-2-
|0--0--0-0-0-0--0-0--0-0-0-0-0-0--0-0-0-0--0-0--0-0-0-0-



C C A A
|3--3--3-3-3-3--3-3--3-3-3-3-0----------------------------
|0--0--0-0-0-0--0-0--0-0-0-0-0--~----------(only 2nd time)
|0--0--0-0-0-0--0-0--0-0-0-0-1--~-------------------------
|0--0--0-0-0-0--0-0--0-0-0-0-2----------------------------



[RIT]
G G Em Em
|2-2--2-2-2-2--2-2--2-2-2-2-2-2--2-2-2-2--2-2--2-2-2-2-
|3-3--3-3-3-3--3-3--3-3-3-3-3-3--3-3-3-3--3-3--3-3-3-3-
|2-2--2-2-2-2--2-2--2-2-2-2-4-4--4-4-4-4--4-4--4-4-4-4-
|0-0--0-0-0-0--0-0--0-0-0-0-0-0--0-0-0-0--0-0--0-0-0-0-


C C D D
|3-3--3-3-3-3--3-3--3-3-3-3-5-5--5-5-5-5---------------
|0-0--0-0-0-0--0-0--0-0-0-0-2-2--2-2-2-2---------------
|0-0--0-0-0-0--0-0--0-0-0-0-2-2--2-2-2-2---------------
|0-0--0-0-0-0--0-0--0-0-0-0-2-2--2-2-2-2x/\-x/\-x/\-x/\ (<-slide)




[BRIDGE]
C C C7M C7M C C Em Em D D D D
|3--3--3-3-3-3--2-2--3-3-3-3-2-2--2-2-2-2--5-5--5-2-2-2-
|0--0--0-0-0-0--0-0--0-0-0-0-3-3--3-3-3-3--2-2--2-2-2-2-
|0--0--0-0-0-0--0-0--0-0-0-0-4-4--4-4-4-4--2-2--2-2-2-2-
|0--0--0-0-0-0--0-0--0-0-0-0-0-0--0-0-0-0--2-2--2-2-2-2-

Tab de uke por , 13 Fev 2010

Comentários da tab (0)

Nenhum comentário ainda :(
Precisa de ajuda, tem uma dica para compartilhar ou simplesmente quer falar sobre essa música? Inicie a discussão!

Tem algo para dizer?
Compartilhe seus Padrões de batida, acordes ou dicas para tocar esta aba!

Sobre esta música: Viba

Nenhuma informação sobre esta música.

Você cobriu Viba em seu Ukulele? Compartilhe seu trabalho!
Enviar um cover