Star Wars Theme Tab de uke por Themes

Ukulele Tab sem cifras.

5.7/10
ImprimirAdicionar tab ao seu Livro de Música

Tablature / Chords (Canção Simplificada)

Font size: A- A A+

Artista: 
Ano:  2006
Tom: desconhecidoTablatura (sem cifras)
A|---------------------7---2--------7---2------------|
E|---------1---7-7-5-4--------7-5-4--------5-4-5--2--|
C|--0-0-0--------------------------------------------|
G|---------------------------------------------------|

A|-----------------7---2--------7---2------------|
E|-----1---7-7-5-4--------7-5-4--------5-4-5--2--|
C|--0--------------------------------------------|
G|-----------------------------------------------|

⇢ Não satisfeito com esta tablatura? Ver 1 outra(s) versão(ões)

Tab de uke por , 17 Dez 2009

Comentários da tab (7)

Tem algo para dizer?
Compartilhe seus Padrões de batida, acordes ou dicas para tocar esta aba!
Filtrar por:
ROBLOX avatar
AWESOME
25 Feb 2018
Comentário
stiffler125 avatar
flag for GB(ISO2) (brynmawr)
yes been working on this one for a while, got it right now just need to upload, be patient peeps :D
02 Sep 2012
Correção
gaga avatar
flag for DE(ISO2) (willich)
COOOOOOOOOOOOOOLLLLLLLLLL
08 Oct 2011
Comentário
jackb avatar
flag for GB(ISO2) (SLEAFORD)
not completely correct but hey it's star wars so it's awesome :)
01 Feb 2011
Comentário
fiddler0526 avatar
flag for US(ISO2) (Roland)
This is wrong.
16 Jan 2010
Comentário
Allong avatar
flag for AU(ISO2) (Geelong)
Not entirely accurate, could use some work
20 Dec 2009
Comentário
Cate avatar
flag for US(ISO2) (helena)
wow great job!!
17 Dec 2009
Comentário

Top Tablaturas e Cifras por Themes, não perca estas músicas!

Sobre esta música: Star Wars Theme

Nenhuma informação sobre esta música.

Você cobriu Star Wars Theme em seu Ukulele? Compartilhe seu trabalho!
Enviar um cover