The Place I'll Return To Someday Tab de uke por The Beatles

Ukulele Tab sem cifras.

ImprimirAdicionar tab ao seu Livro de Música
Tablature / ChordsFont size: A- A A+

Não sabe ler uma tab ou uma cifra? Confira estas aulas de uke:

A|---------------------------------------------------------------------|
E|-----------------3---5---------------5----3---5----------------------|
C|---2---4---5---------------------------------------5----4---2--------|
G|-------------------------4---5---4------------------------------5----|


A|--------------------------------------------------------|
E|-----------------3---5---------------5----5----4---5----|
C|---2---4---5--------------------------------------------|
G|-------------------------4---5---4----------------------|


A|---------------------------------------------------------------------|
E|-----------------3---5---------------5----3---5----------------------|
C|---2---4---5---------------------------------------5----4---2--------|
G|-------------------------4---5---4------------------------------5----|


A|----------------------------------------------------------------------------|
E|-------------3-----------------------5--------3-----------------------------|
C|---5----5---------5----4------------------4--------5----4---4---5----2---2--|
G|---------------------------7----5-------------------------------------------|


A|-----------------------------------------------------------------|
E|-------5---------------5----3---5----1---3---5----5--------------|
C|-----------------------------------------------------------------|
G|---7-------7----5---4----------------------------------4---5-----|


A|------------------------------------------------------------|
E|-------5---------------5----3--------3----------------------|
C|--------------------------------5---------4-----------------|
G|---7-------7----5---4-------------------------6----7----7---|


A|-----------------------------------------------------------------|
E|-------5---------------5----3---5----1---3---5----5--------------|
C|-----------------------------------------------------------------|
G|---7-------7----5---4----------------------------------4---5---5-|

A|------------------------------------------------------------|
E|-------5---------------5----3--------3----------------------|
C|--------------------------------5---------4-----------------|
G|---7-------7----5---4-------------------------7----6----7---|

 

Comentários da tab (0)
Nenhum comentário ainda :(
Precisa de ajuda, tem uma dica para compartilhar ou simplesmente quer falar sobre essa música? Inicie a discussão!

Você deve estar logado para participar da discussão
ou Cadastrar

 

Sobre esta música

Nenhuma informação sobre esta música.