Michelle (Solo) Tab de uke por The Beatles

Ukulele Tab sem cifras.

ImprimirAdicionar tab ao seu Livro de Música
Tablature / ChordsFont size: A- A A+

Não sabe ler uma tab ou uma cifra? Confira estas aulas de uke:

A|-----------1-3-4------------------------------------------------|
E|-1--1-3-4---------4--3--3-4-6----------3-4--------1-4-1---------|
C|-------------------------------3--5--5------2--4--------4--2-4--|
G|----------------------------------------------------------------|


A|--------------|
E|-------1-3-1--|
C|-0-2-4--------|
G|--------------|

x2 the entire tab

 

Comentários da tab (0)
Nenhum comentário ainda :(
Precisa de ajuda, tem uma dica para compartilhar ou simplesmente quer falar sobre essa música? Inicie a discussão!

Você deve estar logado para participar da discussão
ou Cadastrar

 

Sobre esta música

Nenhuma informação sobre esta música.