Get Back Solo Part 1 (Solo) Tab de uke por The Beatles

Ukulele Tab sem cifras.

ImprimirAdicionar tab ao seu Livro de Música
Tablature / ChordsFont size: A- A A+

Não sabe ler uma tab ou uma cifra? Confira estas aulas de uke:

S                                                                           
A|----------------------------------------------------------------------------|
E|------5--5--5--5---------------------5-----5----5--------5------------------|
C|---6------------------------------------6-----6-----2-----------------------|
G|-------------------4--4--6--9-6---4---------------4----5---5----------------|
S
A|----------------------------------------------------------------------------|
E|------5-5---5-5---5-5-------------------5-----5-----5-------5---------------|
C|---6---------------------------------------6------6----2--------------------|
G|-----------------------4--4--6-9-6---4----------------4---5---5-------------|

A|------7-------------------|
E|--2-3---5---------5-------|
C|------------2-4-----------|
G|----------5--b--5---5-----|

 

Comentários da tab (0)
Nenhum comentário ainda :(
Precisa de ajuda, tem uma dica para compartilhar ou simplesmente quer falar sobre essa música? Inicie a discussão!

Você deve estar logado para participar da discussão
ou Cadastrar

 

Sobre esta música

Nenhuma informação sobre esta música.