Lonely Day Tab de uke por System Of A Down

5 Acordes usados na música: Am, F, C, E, G

Avalie a canção!
ImprimirAdicionar tab ao seu Livro de Música

Tablature / Chords (

Font size: A- A A+

Artista: 
Álbum: 
Ano:  2005
Dificuldade: 
3.7
(Intermediario)
Tom: AmCifras e Tablatura
Am Am
G --2----------------------------
C ----0-------0------------------
E ------0--------0---------------
A ----------0--------------------
F F
G --2----------------------------
C ----0-------0------------------
E ------1--------1---------------
A ----------0--------------------
C C
G --0----------------------------
C ----0-------0------------------
E ------0--------0---------------
A ----------3--------------------
E E
G --1----------------------------
C ----4-------4------------------
E ------0--------0---------------
A ----------2--------------------


Am Am F F C C E E
Such a lonely day, and its mine
Am Am F F C C E E
The most lonliest day of my life
Am Am F F C C E E
such a lonely day, should be banned
Am Am F F C C E E
Its a day that I cant stand

Chorus 1 : Stop the Tab

Am Am F F C C E E
The most lonliest day of my life
Am Am F F C C E E
the most lonliest day of my life

Verse 2: Return to the Tab

Am Am F F C C E E
such a lonely day, shouldn't exist
Am Am F F C C E E
its a day that i'll never miss
Am Am F F C C E E
such a lonely day, and its mine
Am Am F F C C E E
the most lonliest day of my life

Chorus 2 : Forget the Tab
F F E E G G Am Am
and if you go, I wanna go with you
F F E E G G Am Am
and if you die, I wanna die with you
F F E E
take your hand and walk away

⇢ Não satisfeito com esta tablatura? Ver 2 outra(s) versão(ões)

Tab de uke por , 25 Jan 2014

Comentários da tab (2)

Tem algo para dizer?
Compartilhe seus Padrões de batida, acordes ou dicas para tocar esta aba!
Filtrar por:
Smith_Artemy avatar
mobile flag for KZ(ISO2) (??????)
?????????? ????? ???? ????????, ?????? ??????
25 Apr 2018
Questão
voytuh avatar
flag for US(ISO2) (ZS)
Tab is badly written. Unless I read it while standing on my head...
26 Jan 2014
Comentário

Top Tablaturas e Cifras por System Of A Down, não perca estas músicas!

Sobre esta música: Lonely Day

Nenhuma informação sobre esta música.

Você cobriu Lonely Day em seu Ukulele? Compartilhe seu trabalho!
Enviar um cover