Ice Hockey Hair Tab de uke por Super Furry Animals

Ukulele Tab sem cifras.

Avalie a canção!
ImprimirAdicionar tab ao seu Livro de Música

Tablature / Chords (Música Inteira)

Font size: A- A A+

Ano:  2016
Tom: desconhecidoTablatura (sem cifras)
H              
A----------------------------------------------------------------------|
E------------------5---4-----------------------5---3-------------------|
C----------------------------------------------------------------------|
G-4--6--6--7--6--4---4---4----4--6--6--7--6--4---4---4--4--5--4--------|

A----------------------------------------------------------------------|
E------------------5---4-----------------------5-----3-----------------|
C-------------------------------------------------------6--4-2---------|
G-4--6--6--7--6--4---4---4----4--6--6--7--6--4---4---------------------|

Tab de uke por , 10 Nov 2015

Comentários da tab (1)

Tem algo para dizer?
Compartilhe seus Padrões de batida, acordes ou dicas para tocar esta aba!
Filtrar por:
inezmartin715 avatar
The way you look at me makes me want to rewrite all my fantasies. f1nd me on inezmartin_mooo_com change _ to dot
13 Jul 2024
Comentário

Top Tablaturas e Cifras por Super Furry Animals, não perca estas músicas!

Sobre esta música: Ice Hockey Hair

Nenhuma informação sobre esta música.

Você cobriu Ice Hockey Hair em seu Ukulele? Compartilhe seu trabalho!
Enviar um cover