Your Call Tab de uke por Secondhand Serenade

0 Acordes usados na música:

8.2/10
ImprimirAdicionar tab ao seu Livro de Música

Tablature / Chords (Canção Simplificada)

Font size: A- A A+

Álbum: 
Ano:  2007
Tom: desconhecidoCifras e Tablatura
A|------0-------0-------0-------0---| intro and verse
E|----0---0---4---4---5---5---5---5-|
C|--2-------4-------6-------6-------|
G|----------------------------------|

A|------0-------0-------0-------0-------0-------0-------0----| chorus
E|----0---0---0---0---4---4---4---4---5---5---5---5---0---0--|
C|--1-------1-------4-------4-------6-------6-------2-------2|
G|-----------------------------------------------------------|

A|------0--------0--------0-------0--| Bridge
E|----5---5----4---4---0----0---4---4|
C|--6--------4-------2--------4------|
G|-----------------------------------|

Intro/Verse 8x
Chorus 4x
Verse 6x
Bridge 4x
chorus 4x

⇢ Não satisfeito com esta tablatura? Ver 1 outra(s) versão(ões)

Tab de uke por , 08 Jun 2011

Comentários da tab (1)

Tem algo para dizer?
Compartilhe seus Padrões de batida, acordes ou dicas para tocar esta aba!
Filtrar por:
rjmpinoy avatar
thank you !!!!
19 Jan 2012
Comentário

Top Tablaturas e Cifras por Secondhand Serenade, não perca estas músicas!

Sobre esta música: Your Call

Nenhuma informação sobre esta música.

Você cobriu Your Call em seu Ukulele? Compartilhe seu trabalho!
Enviar um cover