Have I Told You Lately That I Love You Tab de uke por Rod Stewart

Ukulele Tab sem cifras.

10/10
ImprimirAdicionar tab ao seu Livro de Música

Tablature / Chords (Canção Simplificada)

Font size: A- A A+

Artista: 
Álbum:  desconhecido
Tom: desconhecidoTablatura (sem cifras)
---------------------
5---------------5-2-2
---------------------
--4-6-9--7--6-4------

-------------------
5-------------5-5-5
-------------------
--4-6-9--7--6------

-----------------------
5-------------5-5------
-----------------------
--4-6-9--7--6-----9--8-

Tab de uke por , 09 Dez 2011

Comentários da tab (0)

Nenhum comentário ainda :(
Precisa de ajuda, tem uma dica para compartilhar ou simplesmente quer falar sobre essa música? Inicie a discussão!

Tem algo para dizer?
Compartilhe seus Padrões de batida, acordes ou dicas para tocar esta aba!

Top Tablaturas e Cifras por Rod Stewart, não perca estas músicas!

Sobre esta música: Have I Told You Lately That I Love You

Nenhuma informação sobre esta música.

Você cobriu Have I Told You Lately That I Love You em seu Ukulele? Compartilhe seu trabalho!
Enviar um cover