Musetta's Waltz Tab de uke por Rent

Ukulele Tab sem cifras.

9.8/10
ImprimirAdicionar tab ao seu Livro de Música

Tablature / Chords (

Font size: A- A A+

Artista: 
Álbum:  desconhecido
Tom: desconhecidoTablatura (sem cifras)
A-3-------3-2-------2-0-0-2-3-2-0-3-------0-2-0---2------3-------3-2-------2-0-0-
E-----0---------0-------------------1-1-3-------3---0-0------0---------0---------
C---0---------0--------------------------------------------0---------0-----------
G-------0---------0--------------------------------------------0---------0-------

A-2-3/10-7-5-3-0---------------
E----------------0-3-----------
C--------------------/11-12-12-
G------------------------------

⇢ Não satisfeito com esta tablatura? Ver 2 outra(s) versão(ões)

Tab de uke por , 23 Abr 2011

Comentários da tab (0)

Nenhum comentário ainda :(
Precisa de ajuda, tem uma dica para compartilhar ou simplesmente quer falar sobre essa música? Inicie a discussão!

Tem algo para dizer?
Compartilhe seus Padrões de batida, acordes ou dicas para tocar esta aba!

Top Tablaturas e Cifras por Rent, não perca estas músicas!

Sobre esta música: Musetta's Waltz

Nenhuma informação sobre esta música.

Você cobriu Musetta's Waltz em seu Ukulele? Compartilhe seu trabalho!
Enviar um cover