Love Of My Life (short Intro) (Intro) Tab de uke por Queen

Ukulele Tab sem cifras.

5.7/10
ImprimirAdicionar tab ao seu Livro de Música

Tablature / Chords (Intro)

Font size: A- A A+

Artista: 
Álbum:  desconhecido
Tom: desconhecidoTablatura (sem cifras)
This is the first tab that I have arranged.
I hope it pleases you! :)


A|-0---0--4-|-0-0--0---|0--4--0--2|------2--0-|-2--2--2--|
E|-0--4---0-|--4---2--4|---2-----2|--2---2--2-|-0--2--4--|
C|-1------1-|------1---|---1-----2|-2-2--2--2-|-4--3--2--|
G|-2------2-|------2---|---2-----4|------4--2-|-1--4--2--|

A|-0---0--4-|-0-0--0---|0--4--0--2|---2--2--0-|-2--2--2--2--|
E|-0--4---0-|--4---2--4|---2-----2|--2---2--2-|-0--2--4--0--|
C|-1------1-|------1---|---1-----2|-2----2--2-|-4--3--2--2--|
G|-2------2-|------2---|---2-----4|------4--2-|-1--4--2--1--|

Tab de uke por , 13 Out 2010

Comentários da tab (0)

Nenhum comentário ainda :(
Precisa de ajuda, tem uma dica para compartilhar ou simplesmente quer falar sobre essa música? Inicie a discussão!

Tem algo para dizer?
Compartilhe seus Padrões de batida, acordes ou dicas para tocar esta aba!

Sobre esta música: Love Of My Life (short Intro)

Nenhuma informação sobre esta música.

Você cobriu Love Of My Life (short Intro) em seu Ukulele? Compartilhe seu trabalho!
Enviar um cover