Aloha 'oe Tab de uke por Queen Liliuokalani

Ukulele Tab sem cifras.

9.3/10
ImprimirAdicionar tab ao seu Livro de Música

Tablature / Chords (

Font size: A- A A+

Ano:  1998
Tom: desconhecidoTablatura (sem cifras)
|---2-2-2---0-0---3----------2-2-2-2-2----2-2-0-0-0---0-2-3--3-2-2---0-0-0-0-----|
|--3--3-3-------3-0--2---0---3-3-3-3-3------0---0-0-4-2------0---3---2-2-2-2-----|
|-2---2-2---------0--------2-2-2-2-2-2------0---0-0---2------0---2---2-2-2-2-----|
|-----0-0---------0----0-----0-0-0-0-0------0---0-0----------0---0-2-2-2-2-2-----|


|---2-2-2---0-0---3----------2-2-2-2--------------0----0---2-0-2-2-2-2-2---------|
|--3--3-3-------3-0--2---0---3-3-3-3---------0----0----2---2---3-3-3-3-3---------|
|-2---2-2---------0--------2-2-2-2-2-------2-0----1----2---0---2-2-2-2-2-------2-|
|-----0-0---------0----0-----0-0-0-0---------0----0-00-2---2---0-0-0-0-0---------|


|---------3-3-3---------2-----2-2-2-------------0-0-2-3-2-2-2-2-2-2-2------------|
|-0-0-3-3---0-0----00---3-3-3---3-3-----2--02-3-2-------3-3-3-3-1-1-1-----0-0-3-3|
|---0---0---0-0-------2-2---2---2-2-----2-------0-------2-2-2-2-2-2-2---2---0---0|
|---0---0---0-0-------------0---0-0---0-2-------2-------0-0-0-0-0-0-0-------0---0|


|-3-3-3---------2-------2-2-2-------------------2----0-----2-2-2-2-2-------------|
|---0-0----00---3--3-3-3--3-3------2------------2-------2--3-3-3-3-3-------------|
|---0-0-------2-2-2--2----2-2------2------------0----------2-3-3-3-3-------------|
|---0-0--------------0----------00-2---------0--2----------0-0-0-0-0-------------|

⇢ Não satisfeito com esta tablatura? Ver 1 outra(s) versão(ões)

Tab de uke por , 14 Set 2010

Comentários da tab (0)

Nenhum comentário ainda :(
Precisa de ajuda, tem uma dica para compartilhar ou simplesmente quer falar sobre essa música? Inicie a discussão!

Tem algo para dizer?
Compartilhe seus Padrões de batida, acordes ou dicas para tocar esta aba!

Top Tablaturas e Cifras por Queen Liliuokalani, não perca estas músicas!

Sobre esta música: Aloha 'oe

Nenhuma informação sobre esta música.

Você cobriu Aloha 'oe em seu Ukulele? Compartilhe seu trabalho!
Enviar um cover