Swan Lake Tab de uke por Pyotr Illich Tchaikovsky

Ukulele Tab sem cifras.

7.8/10
ImprimirAdicionar tab ao seu Livro de Música

Tablature / Chords (Música Inteira)

Font size: A- A A+

Álbum:  desconhecido
Tom: desconhecidoTablatura (sem cifras)
Remember to listen to the song when learning to grasp 
the rhythm.

A|--------------------5-2---5-2-------------------------5-2---5-2---|
E|-2-----0-2---2---2------3-----0-----2-----0-2---2---2-----3----|
C|---1-2-----2---2----------------2-1---1-2-----2---2-------|
G|----------------------------------------|



A|-----------0-------0-2-0-0-2-4--2---------------|
E|-----0-2-3---3-2-3------3--------2--------------|
C|-1-2--------------------------------------|
G|----------------------------------------|



A|----------0-------0-2-0---0-2-3-------3-4--4------|
E|-----0-2-3--3-2-3-------3-------3-0-3-------------|
C|-1-2--------------------------------------|
G|----------------------------------------|


A|--------------------5-2---5-2-------------------------5-2---5-2---|
E|-2-----0-2---2---2------3-----0-----2-----0-2---2---2-----3----|
C|---1-2-----2---2----------------2-1---1-2-----2---2-------|
G|----------------------------------------|

A|----------0-------0-2-0---0-2-4-2------------|
E|-----0-2-3--3-2-3-------3--------2---------------|
C|-1-2--------------------------------------|
G|----------------------------------------|

A|----------0-------0-2-0---0-2---3--3-2--2----|
E|-----0-2-3--3-2-3-------3---------3---------|
C|-1-2--------------------------------------|
G|----------------------------------------|




A|-1---1-2--2-3--3-2--2-1--1-2--2-3--3-3--3-2-1-3---3-3---3-2----|
E|---2----------3---------2---------3----3--------3-----3------|
C|----------------------------------------|
G|----------------------------------------|



A|-1-3-3-3-3-4-4-4-4-5-5-5-5-5-5-4-5-5-4-5-5-4-5-5-4-5-5-4-5-5-4-|
E|----3---3---4---4---6---6-----------------------------------------|
C|----------------------------------------|
G|----------------------------------------|



A|----------------------------------------|
E|-2----2----2----2-0--------------------------|
C|--------------------2-1-------------------|
G|----------------------------------------|

A|------------------------------------------------|
E|-2-----0-2---2---2-2-2-2-2-2-2-2-2------0-2---2---2---------------|
C|---1-2-----2---2--------------------1-2-----2---2------------|
G|----------------------------------------|



A|----------------------------------------|
E|-----0-2---2-------------------------------|
C|-1-2-----2---2-----------------------------|
G|---------------4---4---4----4---------------|

Tab de uke por , 19 Fev 2019

Comentários da tab (0)

Nenhum comentário ainda :(
Precisa de ajuda, tem uma dica para compartilhar ou simplesmente quer falar sobre essa música? Inicie a discussão!

Tem algo para dizer?
Compartilhe seus Padrões de batida, acordes ou dicas para tocar esta aba!

Top Tablaturas e Cifras por Pyotr Illich Tchaikovsky, não perca estas músicas!

Sobre esta música: Swan Lake

Nenhuma informação sobre esta música.

Você cobriu Swan Lake em seu Ukulele? Compartilhe seu trabalho!
Enviar um cover