Lavander Town Tab de uke por Pokemon

Ukulele Tab sem cifras.

9.2/10
ImprimirAdicionar tab ao seu Livro de Música

Tablature / Chords (Música Inteira)

Font size: A- A A+

Artista: 
Álbum:  desconhecido
Tom: desconhecidoTablatura (sem cifras)
A-----2-------2-------2-------2-----
E-------2-------2-------2-------2---
C-0-------0-------0-------0---------
G---0-------0-------0-------0-------

A---------------2-------------------2-3-3--
E-----2-2---2-0-----------2-2---2-0--------
C-----------------2-2----------------------
G-0-0-----0-----------0-0-----0------------

Tab de uke por , 12 Jan 2017

Comentários da tab (2)

Tem algo para dizer?
Compartilhe seus Padrões de batida, acordes ou dicas para tocar esta aba!
Filtrar por:
Falakros avatar
second line from the end, the C is 1 1 not 2 2
06 May 2021
Correção
nyeomk avatar
aah! i love this!!
27 May 2019
Comentário

Top Tablaturas e Cifras por Pokemon, não perca estas músicas!

Sobre esta música: Lavander Town

Nenhuma informação sobre esta música.

Você cobriu Lavander Town em seu Ukulele? Compartilhe seu trabalho!
Enviar um cover