Yeah Boy And Doll Face Tab de uke por Pierce The Veil

Ukulele Tab sem cifras.

Avalie a canção!
ImprimirAdicionar tab ao seu Livro de Música

Tablature / Chords (Música Inteira)

Font size: A- A A+

Artista: 
Ano:  2007
Dificuldade: 
4.33
(Intermediario)
Tom: AmTablatura (sem cifras)
A||-xxx-|---------7-77777-x-xxxxx-x-xxxxx-|---------6--6-6-6-6-6--x-xxxxxxxxxxx-|------|
E||-xxx-|-4-44444-4-44444-2-22222-2-22222-|-4-44444-4-44444-4-44444444444-|-6E--|
C||-xxx-|-1-11111-9-99999-8-88888-8-88888-|-1-11111-10-1010101010-9-99999999999-|AGA5-|
G||-xxx-|-6-66666-6-66666-4-44444-5-55555-|-6-66666-6-66666-5-55555555555-|7AR610|
~
A|-x-xxxxxxxxxxx-x-2-x2-x2-x2-x2-xx-x-xxxxxxxxxxx-2--|
E|-0-00000000000-0-00000000000-0-00000000000----|
C|-6-66666666666-5-15-15-15-15-15-5-4-44444444444-6--|
G|-2-22222222222-2-22222222222-2-22222222222-2--|

A|-x--77777766666666-7-777777777777777-----------6--6-6-6-6-6-6-6--x-xxxxxxxxxxxxxxx-|
E|--4----------------5-555555555555555-4-4444444-4-4444444-4-444444444444444-|
C|-x1----------------9-999999999999999-1-1111111-10-10101010101010-9-999999999999999-|
G|-x6-......---------------------------6-6666666-6-6666666-6-666666666666666-|

A|-----------------------------|
E|-4-44444444444444-4-44444444-|
C|-1-11111111111111-1-11111111-|
G|-6-66666666666666-6-66666666-|
~~S
A|---------7-77777-x-xxxxx-x-xxxxx---------7-77777-x-xxxxx-x-x-x----|
E|-4-44444-4-44444-2-22222-2-22222-4-44444-4-44444-2-22222-2-2-2----|
C|-1-11111-9-99999-8-88888-8-88888-1-11111-9-99999-8-88888-8-8-8----|
G|-6-66666-6-66666-4-44444-5-55555-6-66666-6-66666-4-44444-5-5-5----|
S S ~ ~ ~ ~
A|----xxx-------xxx-----7------------------7-|----x--x--x--|
E|-4-----44-6-----66-5-55555555-5-5-5-5-5-|-4--2--2--2--|
C|-1--xxx11-10--xxx1010-9------------------9-|-1--9--8--8--|
G|-6--xxx66-------------------------------|-6--6--4--5--|
~ ~ ~ ~ ~ ~ ~ ~ ~ ~
A|-------------------------------------------|
E|------4------4-6---4--7--7-777777777777777-|
C|----4------4-----4----4--4-444444444444444-|
G|-5------5-------------9--9-999999999999999-|

A|-x--77777766666666-7-777777777777777-----------6--6-6-6-6-6-6-6--x-xxxxxxxxxxxxxxx-|
E|--4----------------5-555555555555555-4-4444444-4-4444444-4-444444444444444-|
C|-x1----------------9-999999999999999-1-1111111-10-10101010101010-9-999999999999999-|
G|-x6-......---------------------------6-6666666-6-6666666-6-666666666666666-|
A|--------|-7-777777777777777-4-4444444-11-111111111111-11-111111111111111111111111xxxxxx-|
E|--------|-5-555555555555555-----------6--6-6-6-6-6-6--5--5-5-5-5-5-5-5-5-5-5-5-5-xxxxxx-|
C|-HERE---|-9-999999999999999-8-8888888--------------------------------------------xxxxxx-|
G|-PLA20S--|-------------------6-6666666-6--6-6-6-6-6-6--6--6-6-6-6-6-6-6-6-6-6-6-6-xxxxxx-|
A|-7--7-7-7-9--9-9---4-4444444-2-2222222-7-777777777777777-|
E|-2~-2-2-2-4~-4-4~~---------------------2-222222222222222-|
C|-x--x-x-x-x--x-x---8-8888888-6-6666666-x-xxxxxxxxxxxxxxx-|
G|-2~-2-2-2-4~-4-4~~-6-6666666-4-4444444-2-222222222222222-|
~ ~~ S S
A|-x--x-x-x-x--SL-DE-----------2222---2-0-000000000000000-|
E|-0--0-0-0-2----4---4-4444444-222------0-000000000000000-|
C|-6--6-6-6-8--P-----1-1111111----x-1---------------------|
G|-2--2-2-2-4---6-8--6-6666666-4444-6-4-2-222222222222222-|
~~~ ~~~~~ ~~~~~~
A|-----------2222-6-7-7777777-----------------------222--x---2-------------|
E|-4-4444444-2222-4-5-5555555------------------444--222--0---0-----4-------|
C|-1-1111111------8-9-9999999-7-7-7-7-7-7-7-7--111-------6---------1-------|
G|-6-6666666-4444-------------5555555555555555-666--444--2---------6-------|
~~~ ~
A|----------77777777-xxxxxxxx-xxxxxxxx----------6-----xxxxxxxxxxxxx-----|
E|-44444444-44444444-22222222-22222222-44444444-4----44444444444-------|
C|-11111111-99999999-88888888-88888888-11111111-10----99999999999xx4-3--|
G|-66666666-66666666-44444444-55555555-66666666-6----55555555555xx9-8--|
~~
A|------7777---x---xxxxxxxxx-|
E|-4444-4444---2---222222222-|
C|-1111-9999---8---888888888-|
G|-6666-6666-4-4---555555555-|
~~ H ~~ ~~ ~ ~
A|-66666666-00000000-|-66666666-77777777-5----7-7---7-2---0-----4--|
E|----------55555555-|----------55555555-4-------2---0---0---0----|
C|-44444444----------|-44444444-99999999-10-----------4------------|
G|-44444444-55555555-|-44444444-66666666-5---------------2--------|
~~ ~ ~ ~SS ~~~ ~~~ ~~ ~ ~ ~~ ~ ~ ~ S ~
A|-2----------0----------------2----------0----4---4-6--|
E|-0------0---0-----4---<-->---0------0---0--0----------|
C|-4--5-----------4--4---------4--5---------------------|
G|------1--01-2----4-----9----------1--01-2------2------|
~~ ~ ~ ~~ ~ ~ ~ ~~~
A|-2----------0----4----2764---2----||
E|-0------0---0--0---540-------0----||
C|-4--5------------------------4----||
G|------1--01-2-------------41------||

A||----5-----|-X--------7-777777777777777------------------------------------------------|
E||----5---|--4-------5-555555555555555-4--4-4--------------------------------------|
C||----R---|-X1-------9-999999999999999--X--X-X-1111-66-6666-1111-4-444444444444444-|
G||-6105A86-|-X6-------------------------13--13-13--6666---------6666-9-999999999999999-|
~ H H H H P
A|--------------------------------------------|
E|-4-444444444444444-4--5-----5---------------|
C|-------------------------2-4---4-6--4--3----|
G|------------------------4-----4------6--brb-|
~~S
A|---------7-77777-x-xxxxx-x-xxxxx---------7-77777-x-xxxxx-x-x-x----|
E|-4-44444-4-44444-2-22222-2-22222-4-44444-4-44444-2-22222-2-2-2----|
C|-1-11111-9-99999-8-88888-8-88888-1-11111-9-99999-8-88888-8-8-8----|
G|-6-66666-6-66666-4-44444-5-55555-6-66666-6-66666-4-44444-5-5-5----|
S S
A|------xxx-----------xxx---------------------------|
E|-4------4-4-------------------------4--4--4--5-|
C|--x--xxx-x-x-66--xxx6666-4-44446666------------|
G|-13---xxx13-13------xxx-----9---------------------|
~~~~ ~~~~ ~ ~ ~SS ~SS ~SS ~
A|-7----6----x--x--|------------------------------------------------------------|
E|---4----4--2--2--|-----------------------6---------7--7-777777777777777-|
C|-----------8--8--|---------------------------------4--4-444444444444444-|
G|--6-6--5-5-4--5--|-5----13--11--5----13--11------13--11--9--9-999999999999999-|

A|-X--------7-777777777777777------------------------------------------------|
E|--4-------5-555555555555555-4--4-4--------------------------------------|
C|-X1-------9-999999999999999--X--X-X-1111-66-6666-1111-4-444444444444444-|
G|-X6-------------------------13--13-13--6666---------6666-9-999999999999999-|
A|-4-4444444-7-7777777-7-777777777777777-4-4444444-11-11111111111111-11-111111111111111111111111111111-|
E|---------------------5-555555555555555-----------6--6-6-6-6-6-6-6--5--5-5-5-5-5-5-5-5-5-5-5-5-5-5-5--|
C|-x-xxxxxxx-x-xxxxxxx-9-999999999999999-8-8888888-----------------------------------------------------|
G|-6-6666666-9-9999999-------------------6-6666666-6--6-6-6-6-6-6-6--6--6-6-6-6-6-6-6-6-6-6-6-6-6-6-6--|
A|-xxxxxx-7--7-7-7-9--9-9---7-7777777-6-6666666-4-444-11-11-11-11---9-9-9-9-777-|
E|-xxxxxx-2~-2-2-2-4~-4-4~~-------------------------------------------------|
C|-xxxxxx-x--x-x-x-x--x-x---x-xxxxxxx-x-xxxxxxx-x-xxx--x-x-x-x--x-x-x-x-xxx-|
G|-xxxxxx-2~-2-2-2-4~-4-4~~-9-9999999-8-8888888-6-666-13-13-13-13--11-11-11-11--999-|
S ~ S S
A|--------------------|-----------2222---2-0-00---------------------------|
E|--------------------|-4-4444444-222------0-00-4-4-4-4---------------|
C|-3-1-3-1-3-1-3-4-3--|-1-1111111----x-1---------x-x-x-x-66666666-444-|
G|-8-6-8-6-8-6-8-9-8--|-6-6666666-4444-6-4-2-22-13-13-13-13-----------999-|
~~~~~
A|-----------2222-6-7-7777777------------------|-----------2222--------|
E|-4-4444444-2222-4-5-5555555------------------|-------------------0---|
C|-1-1111111------8-9-9999999-7-7-7-7-7-7-7-7--|-4-44--3-33xxxx-1------|
G|-6-6666666-4444-------------5555555555555555-|-9-99--8-884444-6------|
~~~~~~~~ ~~~~~~~~~ ~ ~ S ~~~~~~~~ ~~~~~~~~~~~~ ~~
A|--7--7--7--7--6--6----6--6--7-6--|--7--7--7--7--6--6--6--6---|
E|-4--4--5-----4--4----------2-----|-4--4--5-----4--4--4---4---|
C|---------------------------------|---------------------------|
G|---6--6--64-6--6--6-6----------5-|---6--6--64-6--6--6--6-6---|

A|-8--9--9--9--9--9--9--8---8--9--9--9--9--9--9--8---8--9--9--9--9--9--9--8---8--9--9--9--9--9--9--8---|
E|---------------------------------------------------------------------|
C|---------------------------------------------------------------------|
G|-8-9-9-9-9-9-9-8--8-9-9-9-9-9-9-8--8-9-9-9-9-9-9-8--8-9-9-9-9-9-9-8--|
~ ~
A|-8--9--9--9--9--9--9--8---8--9----8--9--9--9--9--9--9--8---8--9--9--9----------|
E|---------------------------------------------------------|
C|-------------------------------------------------------v-|
G|-8-9-9-9-9-9-9-8--8-9---8-9-9-9-9-9-9-8--8-9-9-9--9--8---|
~~SS ~ ~
A|------7777---x---------------------|
E|-4444-4444---2----4-----4-----4----|
C|-1111-9999---8---------------------|
G|-6666-6666-4-4------8-4---9-4---8--|

A|--------------7-7-9-9-9-9-9-9-9-|-5-7-7-5-7-5---7---7---7---7---|
E|-5--4-0-4---2----(0-0-0-0-0-0-0)|-------------------------------|
C|--------------------------------|-------------------------------|
G|--------------------------------|-------------5---5---4---4---4-|

⇢ Não satisfeito com esta tablatura? Ver 1 outra(s) versão(ões)

Tab de uke por , 09 Abr 2012

Comentários da tab (0)

Nenhum comentário ainda :(
Precisa de ajuda, tem uma dica para compartilhar ou simplesmente quer falar sobre essa música? Inicie a discussão!

Tem algo para dizer?
Compartilhe seus Padrões de batida, acordes ou dicas para tocar esta aba!

Top Tablaturas e Cifras por Pierce The Veil, não perca estas músicas!

Sobre esta música: Yeah Boy And Doll Face

Nenhuma informação sobre esta música.

Você cobriu Yeah Boy And Doll Face em seu Ukulele? Compartilhe seu trabalho!
Enviar um cover