Shop Theme Tab de uke por Legend Of Zelda: OoT

Ukulele Tab sem cifras.

9.7/10
ImprimirAdicionar tab ao seu Livro de Música

Tablature / Chords (

Font size: A- A A+

Álbum:  desconhecido
Tom: desconhecidoTablatura (sem cifras)
A------5---------5-3-2------
E--3-3---1-3-------------1--
C--------------------------2
G----------------------0----

A--3--3-3---------3---------3-3-2--2-2-------
E--------------------------------------------
C--------------------------------------------
G---------2-2-0-----0-0-2-2------------2-2-0-

A------------2--2-2---------2--------2--3--3-3--3-3-3
E----------------------------------------------------
C----------------------------------------------------
G--0-2-2-3-3--------2-2-0-----0-0-2------------------

A--3--3-3---------3---------3-3-2--2-2-------
E--------------------------------------------
C--------------------------------------------
G---------2-2-0-----0-0-2-2------------2-2-0-

A------------2--2-2---------2--------2--3--3-3--3-3-3
E----------------------------------------------------
C----------------------------------------------------
G--0-2-2-3-3--------2-2-0-----0-0-2------------------

Tab de uke por , 04 Jan 2012

Comentários da tab (1)

Tem algo para dizer?
Compartilhe seus Padrões de batida, acordes ou dicas para tocar esta aba!
Filtrar por:
Agent_Blue avatar
flag for US(ISO2) (Snohomish)
Simple but awesome :D
13 Jan 2012
Correção

Top Tablaturas e Cifras por Legend Of Zelda: OoT, não perca estas músicas!

Sobre esta música: Shop Theme

Nenhuma informação sobre esta música.

Você cobriu Shop Theme em seu Ukulele? Compartilhe seu trabalho!
Enviar um cover