Cardigan Song Tab de uke por Kikagaku Moyo

Ukulele Tab sem cifras.

Avalie a canção!
ImprimirAdicionar tab ao seu Livro de Música

Tablature / Chords (Música Inteira)

Font size: A- A A+

Artista: 
Álbum:  desconhecido
Dificuldade: 
3.75
(Intermediario)
Tom: AmTablatura (sem cifras)
H    S    H    S               H    S    H    S        SS
A|------------------------------|------------------------------| -E|---------------------------5--|---------------------------5--|-
C|-2-2----2--2-4--2-4--4-6------|-2-2----2--2-4--2-4--4-6------| G|------6-----------------------|------6-----------------------| ~ ~ H S S ~ H ~~~~ SSSSSS
A|------------------------------|------------------------------| -
-E|-------5----------------3-----|------------------------------|- -
C|-2--------6--6--4-6--6-----6--|-2-6---4-------2--2-----------| -
G|---4--------------------------|----------6--6----------------| -
H P
A|-------------|-------------|-------------|---------------|
E|---2-----2---|---2-----2---|---2-----2---|---2-----2-3-2-|
C|-2---2-2---2-|-2---2-2---2-|-2---2-2---2-|-2---2-2-------| G|-------------|-------------|-------------|---------------|

A|-------------|-------------|-------------|-------------|
E|---2-----2---|---2-----2---|---2-----2---|---2-----2---|
C|-2---2-2---2-|-2---2-2---2-|-2---2-2---2-|-2---2-2---2-|
G|-------------|-------------|-------------|-------------|
SS
A|-------------|-------------|---7-----7---|---7-----7---| -E|---2-----2---|---2-----2---|-------------|-------------|-
C|-2---2-2---2-|-2---2-2---2-|-2-----2-----|-2-----2-----| G|-------------|-------------|-----5-----5-|-----5-----5-| SSSSSS
A|----------7--|-------------|-------------|-------------| -
-E|-------------|----------3--|---2-----2---|---2-----2---|- -
C|-2-----------|-2-----------|-2---2-2---2-|-2---2-2---2-| -
G|-------5-----|-------0-----|-------------|-------------| -
H P
A|-------------|-------------|-------------|---------------|
E|---2-----2---|---2-----2---|---2-----2---|---2-----2-3-2-|
C|-2---2-2---2-|-2---2-2---2-|-2---2-2---2-|-2---2-2-------|
G|-------------|-------------|-------------|---------------|
H S H S H S H S SS
A|------------------------------|------------------------------| -E|---------------------------5--|---------------------------5--|-
C|-2-2----2--2-4--2-4--4-6------|-2-2----2--2-4--2-4--4-6------| G|------6-----------------------|------6-----------------------| ~ ~ H S S ~ H ~~~~ SSSSSS
A|------------------------------|------------------------------| -
-E|-------5----------------3-----|------------------------------|- -
C|-2--------6--6--4-6--6-----6--|-2-6---4-------2--2-----------| -
G|---4--------------------------|----------6--6----------------| -
H P
A|-------------|-------------|-------------|---------------|
E|---2-----2---|---2-----2---|---2-----2---|---2-----2-3-2-|
C|-2---2-2---2-|-2---2-2---2-|-2---2-2---2-|-2---2-2-------|
G|-------------|-------------|-------------|---------------|

A|-------------|-------------|-------------|-------------|
E|---2-----2---|---2-----2---|---2-----2---|---2-----2---|
C|-2---2-2---2-|-2---2-2---2-|-2---2-2---2-|-2---2-2---2-|
G|-------------|-------------|-------------|-------------|
SS
A|-------------|-------------|---7-----7---|---7-----7---| -E|---2-----2---|---2-----2---|-------------|-------------|-
C|-2---2-2---2-|-2---2-2---2-|-2-----2-----|-2-----2-----| G|-------------|-------------|-----5-----5-|-----5-----5-| SSSSSS
A|----------7--|-------------|-------------|-------------| -
-E|-------------|----------3--|---2-----2---|---2-----2---|- -
C|-2-----------|-2-----------|-2---2-2---2-|-2---2-2---2-| -
G|-------5-----|-------0-----|-------------|-------------| -
SS
A|-------------|-------------|-------------|-------------| -E|---2-----2---|---2-----2---|---2-----2---|---2-----2---|-
C|-2---2-2---2-|-2---2-2---2-|-2---2-2---2-|-2---2-2---2-| G|-------------|-------------|-------------|-------------| SSSSSS
A|---7-----7---|---7-----7---|---7-----7---|---7-----7---| -
-E|-------------|-------------|-------------|-------------|- -
C|-2-----2-----|-2-----2-----|-2-----2-----|-2-----2-----| -
G|-----5-----5-|-----5-----5-|-----5-----5-|-----5-----5-| -

A|-------------|-------------|-------------|-----4---7---|
E|---2-----2---|-----1---3---|---2-----2---|-------------|
C|-2---2-2---2-|-2---2---4---|-2---2-2---2-|-2-----------| G|-------------|-------------|-------------|-----2---5---|

Tab de uke por , 23 Dez 2019

Comentários da tab (1)

Tem algo para dizer?
Compartilhe seus Padrões de batida, acordes ou dicas para tocar esta aba!
Filtrar por:
ninafuller488 avatar
Tell me what makes you feel truly seen and desired. Tonight, I want to be the one who sees you completely, and explore those desires with a touch that ignites a passion that burns long after the night is over. f1nd me on ninafuller_mooo_com change _ to dot
07 Jul 2024
Comentário

Top Tablaturas e Cifras por Kikagaku Moyo, não perca estas músicas!

Sobre esta música: Cardigan Song

Nenhuma informação sobre esta música.

Você cobriu Cardigan Song em seu Ukulele? Compartilhe seu trabalho!
Enviar um cover