Purple Haze (simpler Version) Tab de uke por Jimi Hendrix

Ukulele Tab sem cifras.

7.2/10
ImprimirAdicionar tab ao seu Livro de Música

Tablature / Chords (Música Inteira)

Font size: A- A A+

Artista: 
Álbum:  desconhecido
Tom: desconhecidoTablatura (sem cifras)
A||--0----6----0----6----|--0----6----0----6----|
E||----------------------|----------------------|
C||----------------------|----------------------|
G||----------------------|----------------------|


|-----5--10-------------|----------------------|
|--7---------5----------|--3-------------------|
|-----------------------|-----2--4--4----------|
|-----------------------|----------------------|


|-----5--10-------------|----------------------|
|--7---------5----------|--3-------------------|
|-----------------------|-----2--4--4----------|
|-----------------------|----------------------|


|-----------------------|----------------------|
|-----3--5--6--3--------|--3-------------------|
|--4--------------------|-----2--4--4----------|
|-----------------------|----------------------|


|-------------------------|--2--5--5--7----------||
|-----3--5--3--5----3-----|----------------------||
|--4-------------------4--|----------------------||
|-------------------------|----------------------||


# Then some chords are played. I usually use some E7 E7's,
# G's and A's* (in that order) until this part:


||--9--7--5----|-----5--10-------5--10----||
||-------------|--7-----------7-----------||
||-------------|--------------------------||
||-------------|--------------------------||


# * The A A maj that I use looks like a standard G G just two frets
# lower. However, I typically do not worry about holding the G G
# string down in the second fret. It looks something like this:

A||--4--||
E||--5--||
C||--4--||
G||--0--||


# I also have a trickier version with some more bends,
# slides and vibrato sections here on Ukulele Tabs as
# well if you are interested.

Tab de uke por , 16 Nov 2009

Comentários da tab (2)

Tem algo para dizer?
Compartilhe seus Padrões de batida, acordes ou dicas para tocar esta aba!
Filtrar por:
patrickrectenwald avatar
how do you read these?
16 Aug 2020
Questão
Dagoth_Ur avatar
flag for CA(ISO2) (Colborne)
strumming pattern?
27 Feb 2020
Questão

Top Tablaturas e Cifras por Jimi Hendrix, não perca estas músicas!

Sobre esta música: Purple Haze (simpler Version)

Nenhuma informação sobre esta música.

Você cobriu Purple Haze (simpler Version) em seu Ukulele? Compartilhe seu trabalho!
Enviar um cover