Harry Potter Theme Song Tab de uke por Harry Potter

Ukulele Tab sem cifras.

8.5/10
ImprimirAdicionar tab ao seu Livro de Música

Tablature / Chords (Música Inteira)

Font size: A- A A+

Artista: 
Álbum:  desconhecido
Tom: desconhecidoTablatura (sem cifras)
A|---0--3-2-0--7--5--2--0--3-2---1--------
E|-0---------------------------3---0------
C|----------------------------------------
G|----------------------------------------



A|---0--3-2-0--7--10--9--8--5--8-7-6---3-0-
E|-0---------------------------------0-----
C|-----------------------------------------
G|-----------------------------------------



A|-3-7--3-7--3-8-7-6--2-3-7-6---0--7------
E|----------------------------0-----------
C|----------------------------------------
G|----------------------------------------



A|-3-7--3-7--3-10-9-8--5-8-7-6---3--0-----
E|-----------------------------0----------
C|----------------------------------------
G|----------------------------------------



A|-7-7-7-7-7-7-6-7--8-7-6-7--3--5-5-4-5-8-7-
E|------------------------------------------
C|------------------------------------------
G|------------------------------------------



A|--0--7--7-7-7-7-7-7-6-7-10-9-8-9-5-8-7-6-7-
E|-0-----------------------------------------
C|-------------------------------------------
G|-------------------------------------------



A|------3-0-------------|
E|-0--4-----------------|
C|----------------------|
G|----------------------|

⇢ Não satisfeito com esta tablatura? Ver 4 outra(s) versão(ões)

Tab de uke por , 05 Fev 2020

Comentários da tab (0)

Nenhum comentário ainda :(
Precisa de ajuda, tem uma dica para compartilhar ou simplesmente quer falar sobre essa música? Inicie a discussão!

Tem algo para dizer?
Compartilhe seus Padrões de batida, acordes ou dicas para tocar esta aba!

Top Tablaturas e Cifras por Harry Potter, não perca estas músicas!

Sobre esta música: Harry Potter Theme Song

Nenhuma informação sobre esta música.

Você cobriu Harry Potter Theme Song em seu Ukulele? Compartilhe seu trabalho!
Enviar um cover