On Melancholy Hill Tab de uke por Gorillaz

0 Acordes usados na música:

8.1/10
ImprimirAdicionar tab ao seu Livro de Música

Tablature / Chords (Música Inteira)

Font size: A- A A+

Artista: 
Álbum: 
Ano:  2010
Tom: desconhecidoCifras e Tablatura
This is the main riff that plays throughout the song.
It's great for beginners and sounds calming. So here ya go.


A|----------------------------------------|
E|--------5------5-----5------------------|
C|-----2------2-----2----2----------------|
G|----------------------------------------|



A|----------------------------------------|
E|--------5------5-----5------------------|
C|-----1------1-----1----1----------------|
G|----------------------------------------| (This one is basically the first part
except the 2s are now 1s)

A|----------------------------------------|
E|--------5------5-----5------------------|
C|-----2------2-----2----2----------------|
G|----------------------------------------|



A|----------------------------------------|
E|--------5--------5-----5----------------|
C|-----2-----2--1-----1-----1-------------|
G|----------------------------------------| x2

[Repeat]

There ya go! I'd recommend listening to the riff in the song so you
can get a better understanding of when to pluck each note. Thank you!

⇢ Não satisfeito com esta tablatura? Ver 6 outra(s) versão(ões)

Tab de uke por , 02 Jan 2014

Comentários da tab (0)

Nenhum comentário ainda :(
Precisa de ajuda, tem uma dica para compartilhar ou simplesmente quer falar sobre essa música? Inicie a discussão!

Tem algo para dizer?
Compartilhe seus Padrões de batida, acordes ou dicas para tocar esta aba!

Sobre esta música: On Melancholy Hill

Nenhuma informação sobre esta música.

Você cobriu On Melancholy Hill em seu Ukulele? Compartilhe seu trabalho!
Enviar um cover