Dare Tab de uke por Gorillaz

Ukulele Tab sem cifras.

5.4/10
ImprimirAdicionar tab ao seu Livro de Música

Tablature / Chords (

Font size: A- A A+

Artista: 
Álbum: 
Ano:  2005
Tom: desconhecidoTablatura (sem cifras)
A|----------------------------------------------------------------------------|
E|6-----5-----3--------3-----------------------------------------------------|
C|---------------------------------------------------------------------------|
G|---10-----9------7-------7--------------------------------------------------|

A|-----------------------------------6-----5-------5--------------------------|
E|6-----5-----3-----3---------1--------6-----5-------5-----------------------|
C|---------------------------------------------------------------------------|
G|---10-----9----7------7---------5-------------------------------------------|

Tab de uke por , 16 Set 2012

Comentários da tab (1)

Tem algo para dizer?
Compartilhe seus Padrões de batida, acordes ou dicas para tocar esta aba!
Filtrar por:
Adrian_Roman avatar
flag for US(ISO2) (Puerto Rico)
I feel like it would be easier to replace the 10, 9, and 7 on string G, with 8, 7 and 5 on string A. Since "A" is "G" just with 2 more spaces.
10 Mar 2019
Correção

Top Tablaturas e Cifras por Gorillaz, não perca estas músicas!

Sobre esta música: Dare

Nenhuma informação sobre esta música.

Você cobriu Dare em seu Ukulele? Compartilhe seu trabalho!
Enviar um cover