Falling Slowly Tab de uke por Glen Hansard And Marketa Irglova

Ukulele Tab sem cifras.

9/10
ImprimirAdicionar tab ao seu Livro de Música

Tablature / Chords (Música Inteira)

Font size: A- A A+

Álbum: 
Ano:  2006
Tom: desconhecidoTablatura (sem cifras)
# Intro/Verse Repeat Once

A|-3---5---7---5---3---5---8---7----------|
E|----------------------------------------|
C|---0---0---0---0---5---5---5---5--------|
G|-0---0---0---0---0---0---0---0----------|



A|-3---5---7---5---3---3---3---3----------|
E|---0---0---0---0---5---5---5---5--------|
C|----------------------------------------|
G|-0---0---0---0---0---0---0---0----------|

# Pre-chorus

A|-0---0---2---2---3---3---2---2---0---0---2---2------|
E|----------------------------------------------------|
C|---0---0---2---2---0---0---2---2---0---0---2---2----|
G|-2---2---0---0---0---0---0---0---2---2---0---0------|



A|-0---0---0---0---0---0---0---0----------|
E|----------------------------------------|
C|---0---0---0---0---0---0---0---0--------|
G|-0---0---0---0---2---2---2---2----------|

# Chorus

A|-3---5---2---3---3---5---2---3---3---5---2---3---10---10---8---8----|
E|--------------------------------------------------------------------|
C|---0---0---0---0---5---5---5---5---0---0---0---0----5----5---5---5--|
G|-0---0---0---0---0---0---0---0---0---0---0---0---0----0----0---0----|

A|-3---5---2---3---3---5---2---3---3---5---2---3---10---10---8---8---7---7---5---5--|
E|----------------------------------------------------------------------------------|
C|---0---0---0---0---5---5---5---5---0---0---0---0----5----5---5---5---5---5---5---5|
G|-0---0---0---0---0---0---0---0---0---0---0---0---0----0----0---0---0---0---0---0--|

# Back to Verse

⇢ Não satisfeito com esta tablatura? Ver 3 outra(s) versão(ões)

Tab de uke por , 26 Jun 2012

Comentários da tab (1)

Tem algo para dizer?
Compartilhe seus Padrões de batida, acordes ou dicas para tocar esta aba!
Filtrar por:
astudyinpurple avatar
Well done, not too difficult to read. A beautiful song. Maybe you could add some chords, for the chorus at least?
30 Aug 2012
Questão

Top Tablaturas e Cifras por Glen Hansard And Marketa Irglova, não perca estas músicas!

Sobre esta música: Falling Slowly

Nenhuma informação sobre esta música.

Você cobriu Falling Slowly em seu Ukulele? Compartilhe seu trabalho!
Enviar um cover