Lose Yourself Tab de uke por Eminem

Ukulele Tab sem cifras.

7.8/10
ImprimirAdicionar tab ao seu Livro de Música

Tablature / Chords (Música Inteira)

Font size: A- A A+

Artista: 
Álbum: 
Ano:  2005
Dificuldade: 
2.5
(Iniciante)
Tom: C, G, Am, EmTablatura (sem cifras)
Intro:
-2---2-0--0-2---------5-3-2-0
--3-0---2----3-0---3-3-------
---------2------------------- x2
-----------------------------

----------------
----5-3/2-3-2---
-4-4---------2-4
----------------

Verse:
--------------------------------------
-7-7-7-7-7-7-7--8-8-8-8-8-8--x-x------
-4-4-4-4-4-4-4--4-4-4-4-4-4--x-x------
--------------------------------------

-----5-3-2-0-2-----
-3-3---------------
-------------------
-------------------


Chorus Chords:
-2-------------3------------------------
-0-- and ---0---- 0r Em and C--------
-4-------------4------------------------ Listen to song for strum pattern
----------------------------------------

⇢ Não satisfeito com esta tablatura? Ver 1 outra(s) versão(ões)

Tab de uke por , 18 Fev 2011

Comentários da tab (5)

Tem algo para dizer?
Compartilhe seus Padrões de batida, acordes ou dicas para tocar esta aba!
Filtrar por:
HitOrMiss avatar
Mum’s spaghetti.
19 Dec 2018
Comentário
FeldwegRambo avatar
its nice
16 Sep 2018
Comentário
Squab34 avatar
flag for US(ISO2) (Spokane)
Good. Rapping+eminem+ukulele=hell yes
11 Nov 2011
Comentário
jewkulele avatar
flag for US(ISO2) (Falmouth)
yaaa!!!
20 Feb 2011
Comentário
story92 avatar
flag for US(ISO2) (O'Fallon)
It's good....but make it better
18 Feb 2011
Comentário

Sobre esta música: Lose Yourself

Nenhuma informação sobre esta música.

Você cobriu Lose Yourself em seu Ukulele? Compartilhe seu trabalho!
Enviar um cover