In The Middle Tab de uke por Dodie Clark

Ukulele Tab sem cifras.

10/10
ImprimirAdicionar tab ao seu Livro de Música

Tablature / Chords (

Font size: A- A A+

Artista: 
Álbum:  desconhecido
Tom: desconhecidoTablatura (sem cifras)
A|---------------------------------------------------------------------------|
E|--3--3--3---------1--1--1-----1--------------------------------------------|
C|---------------------------3-----------------------------------------------|
G|---------3--3--3-----------------------------------------------------------|

A|---------------------------------------------------------------------------|
E|--3--3--1--1--0--0-----1---------------------------------------------------|
C|--------------------3------------------------------------------------------|
G|---------------------------------------------------------------------------|

A|---------------------------------------------------------------------------|
E|--3--3--3--1--1--3--3--3--1--1--0--0--0--0--0------------------------------|
C|-----------------------------------------------3---------------------------|
G|---------------------------------------------------------------------------|

A|---------------------------------------------------------------------------|
E|--3--3--3--1--1--3--3--3--3------------------------------------------------|
C|---------------------------------------------------------------------------|
G|---------------------------------------------------------------------------|

A|---------------------------------------------------------------------------|
E|--3--3--3-------1--1--1--0--0--0-------------------------------------------|
C|---------------------------------------------------------------------------|
G|---------3--3--3-----------------------------------------------------------|

A|--------------------------------------------------------------------------------------|
E|--3--3--3--1--1--3--3--3--3-----------------------------------------------------------|
C|--------------------------------------------------------------------------------------|
G|--------------------------------------------------------------------------------------|

⇢ Não satisfeito com esta tablatura? Ver 2 outra(s) versão(ões)

Tab de uke por , 03 Mar 2018

Comentários da tab (0)

Nenhum comentário ainda :(
Precisa de ajuda, tem uma dica para compartilhar ou simplesmente quer falar sobre essa música? Inicie a discussão!

Tem algo para dizer?
Compartilhe seus Padrões de batida, acordes ou dicas para tocar esta aba!

Top Tablaturas e Cifras por Dodie Clark, não perca estas músicas!

Sobre esta música: In The Middle

Nenhuma informação sobre esta música.

Você cobriu In The Middle em seu Ukulele? Compartilhe seu trabalho!
Enviar um cover