He's A Pirate (pirates Of The Caribbean Theme) Tab de uke por Disney

Ukulele Tab sem cifras.

6.2/10
ImprimirAdicionar tab ao seu Livro de Música

Tablature / Chords (Música Inteira)

Font size: A- A A+

Artista: 
Álbum:  desconhecido
Tom: desconhecidoTablatura (sem cifras)
A|----0-0-0-2-3-3-3-5-2-2-0------0-----0-0-0-2-3-3-3-5-2-2-0----0-----0-0-----5-5-5-|
E|-0-3------------------------3-3---0-3-------------=---------3---0-3-----5-8-------|
C|----------------------------------------------------------------------------------|
G|----------------------------------------------------------------------------------|



A|-7-8-8-7-5-7-------------5-7---0-3-2-2-3-0-2------|
E|-------------5-5-7-8-8------5----------------0-3--|# repeat
C|--------------------------------------------------|
G|--------------------------------------------------|



A|---------0-0-2-3-3-5-7-3-----8-5---------------5-7-7-7-8-7-5-5-5-5-7-7-7-7-8-7-5-|
E|-4-3-5-3-----------------5-------5---4-4-5-4-8-----------------------------------|
C|---------------------------4-------5---------------------------------------------|
G|---------------------------------------------------------------------------------|



A|--------------5-7-5-------5-7-5---5-7-5-----------5-7-8-5---5-----2---3-5---5-7-7-|
E|-8-7-5-5-7-8--------8-7-8-------8-------8-5-5-7-8---------8---7-5---4-----8-------|
C|----------------------------------------------------------------------------------|
G|----------------------------------------------------------------------------------|



A|-5-5-3-2-3-2-0-------7---------------7-7-10-7-5-5-3-2-3-2-0-----------------|
E|---------------5-7-8---5-7-8-8-5-7-8----------------------|
C|----------------------------------------|
G|----------------------------------------|

Tab de uke por , 04 Abr 2012

Comentários da tab (2)

Tem algo para dizer?
Compartilhe seus Padrões de batida, acordes ou dicas para tocar esta aba!
Filtrar por:
Paige7085 avatar
I don't understand how to play. I see them so much and I don't understand
26 Dec 2018
Comentário
letsblowitup avatar
–That's got to be the best pirate I've ever seen
–So it would seem...
09 May 2018
Comentário

Sobre esta música: He's A Pirate (pirates Of The Caribbean Theme)

Nenhuma informação sobre esta música.

Você cobriu He's A Pirate (pirates Of The Caribbean Theme) em seu Ukulele? Compartilhe seu trabalho!
Enviar um cover